ISO-10303-21;
HEADER;
FILE_DESCRIPTION (( 'STEP AP214' ),
    '1' );
FILE_NAME ('Simple Robot Starting Size.STEP',
    '2014-07-14T22:58:08',
    ( '' ),
    ( '' ),
    'SwSTEP 2.0',
    'SolidWorks 2014',
    '' );
FILE_SCHEMA (( 'AUTOMOTIVE_DESIGN' ));
ENDSEC;

DATA;
#1 = PRODUCT ( 'Simple Robot Starting Size', 'Simple Robot Starting Size', '', ( #12 ) ) ;
#2 = VECTOR ( 'NONE', #111, 39.37007874015748100 ) ;
#3 = EDGE_LOOP ( 'NONE', ( #108, #47, #46, #43 ) ) ;
#4 = ORIENTED_EDGE ( 'NONE', *, *, #178, .T. ) ;
#5 = EDGE_CURVE ( 'NONE', #125, #18, #127, .T. ) ;
#6 = FACE_OUTER_BOUND ( 'NONE', #110, .T. ) ;
#7 = FACE_OUTER_BOUND ( 'NONE', #34, .T. ) ;
#8 = UNCERTAINTY_MEASURE_WITH_UNIT (LENGTH_MEASURE( 1.000000000000000100E-005 ), #82, 'distance_accuracy_value', 'NONE');
#9 = ORIENTED_EDGE ( 'NONE', *, *, #206, .F. ) ;
#10 = APPLICATION_PROTOCOL_DEFINITION ( 'draft international standard', 'automotive_design', 1998, #11 ) ;
#11 = APPLICATION_CONTEXT ( 'automotive_design' ) ;
#12 = PRODUCT_CONTEXT ( 'NONE', #72, 'mechanical' ) ;
#13 = APPLICATION_PROTOCOL_DEFINITION ( 'draft international standard', 'automotive_design', 1998, #72 ) ;
#14 = DIRECTION ( 'NONE',  ( 1.000000000000000000, 0.0000000000000000000, 0.0000000000000000000 ) ) ;
#15 = DIRECTION ( 'NONE',  ( 0.0000000000000000000, 0.0000000000000000000, 1.000000000000000000 ) ) ;
#16 =( NAMED_UNIT ( * ) SI_UNIT ( $, .STERADIAN. ) SOLID_ANGLE_UNIT ( ) );
#17 =( NAMED_UNIT ( * ) PLANE_ANGLE_UNIT ( ) SI_UNIT ( $, .RADIAN. ) );
#18 = VERTEX_POINT ( 'NONE', #164 ) ;
#19 =( CONVERSION_BASED_UNIT ( 'INCH', #71 ) LENGTH_UNIT ( ) NAMED_UNIT ( #179 ) );
#20 =( LENGTH_UNIT ( ) NAMED_UNIT ( * ) SI_UNIT ( $, .METRE. ) );
#21 = SURFACE_STYLE_USAGE ( .BOTH. , #25 ) ;
#22 = VERTEX_POINT ( 'NONE', #31 ) ;
#23 = EDGE_LOOP ( 'NONE', ( #181, #9, #185, #148 ) ) ;
#24 = VERTEX_POINT ( 'NONE', #86 ) ;
#25 = SURFACE_SIDE_STYLE ('',( #62 ) ) ;
#26 = FILL_AREA_STYLE ('',( #75 ) ) ;
#27 = DIRECTION ( 'NONE',  ( -1.000000000000000000, 0.0000000000000000000, -0.0000000000000000000 ) ) ;
#28 = VERTEX_POINT ( 'NONE', #33 ) ;
#29 = CLOSED_SHELL ( 'NONE', ( #189, #184, #191, #186, #190, #188 ) ) ;
#30 = CARTESIAN_POINT ( 'NONE',  ( 9.000000000000001800, 0.0000000000000000000, -9.000000000000001800 ) ) ;
#31 = CARTESIAN_POINT ( 'NONE',  ( -8.999999999999998200, 0.0000000000000000000, 8.999999999999996400 ) ) ;
#32 = EDGE_LOOP ( 'NONE', ( #163, #53, #51, #50 ) ) ;
#33 = CARTESIAN_POINT ( 'NONE',  ( -8.999999999999998200, 18.00000000000000000, 8.999999999999996400 ) ) ;
#34 = EDGE_LOOP ( 'NONE', ( #36, #58, #55, #4 ) ) ;
#35 = VERTEX_POINT ( 'NONE', #101 ) ;
#36 = ORIENTED_EDGE ( 'NONE', *, *, #196, .T. ) ;
#37 = EDGE_LOOP ( 'NONE', ( #94, #207, #122, #40 ) ) ;
#38 = AXIS2_PLACEMENT_3D ( 'NONE', #83, #73, #95 ) ;
#39 = VERTEX_POINT ( 'NONE', #65 ) ;
#40 = ORIENTED_EDGE ( 'NONE', *, *, #196, .F. ) ;
#41 = PLANE ( 'NONE',  #208 ) ;
#42 = VERTEX_POINT ( 'NONE', #97 ) ;
#43 = ORIENTED_EDGE ( 'NONE', *, *, #194, .T. ) ;
#44 = PLANE ( 'NONE',  #211 ) ;
#45 = DIRECTION ( 'NONE',  ( -1.000000000000000000, -0.0000000000000000000, -0.0000000000000000000 ) ) ;
#46 = ORIENTED_EDGE ( 'NONE', *, *, #201, .T. ) ;
#47 = ORIENTED_EDGE ( 'NONE', *, *, #198, .T. ) ;
#48 = FILL_AREA_STYLE_COLOUR ( '', #130 ) ;
#49 = CARTESIAN_POINT ( 'NONE',  ( 9.000000000000001800, 18.00000000000000000, -9.000000000000001800 ) ) ;
#50 = ORIENTED_EDGE ( 'NONE', *, *, #5, .T. ) ;
#51 = ORIENTED_EDGE ( 'NONE', *, *, #201, .F. ) ;
#52 = PLANE ( 'NONE',  #197 ) ;
#53 = ORIENTED_EDGE ( 'NONE', *, *, #200, .F. ) ;
#54 = DIRECTION ( 'NONE',  ( -0.0000000000000000000, -1.000000000000000000, -0.0000000000000000000 ) ) ;
#55 = ORIENTED_EDGE ( 'NONE', *, *, #198, .F. ) ;
#56 = SURFACE_STYLE_USAGE ( .BOTH. , #67 ) ;
#57 = CARTESIAN_POINT ( 'NONE',  ( -8.999999999999998200, 18.00000000000000000, 8.999999999999996400 ) ) ;
#58 = ORIENTED_EDGE ( 'NONE', *, *, #5, .F. ) ;
#59 = CARTESIAN_POINT ( 'NONE',  ( -8.999999999999998200, 0.0000000000000000000, 8.999999999999996400 ) ) ;
#60 = COLOUR_RGB ( '',0.2509803921568627400, 0.2509803921568627400, 0.2509803921568627400 ) ;
#61 =( NAMED_UNIT ( * ) SI_UNIT ( $, .STERADIAN. ) SOLID_ANGLE_UNIT ( ) );
#62 = SURFACE_STYLE_FILL_AREA ( #26 ) ;
#63 = FILL_AREA_STYLE ('',( #48 ) ) ;
#64 = PRESENTATION_STYLE_ASSIGNMENT (( #21 ) ) ;
#65 = CARTESIAN_POINT ( 'NONE',  ( 9.000000000000001800, 18.00000000000000000, -9.000000000000001800 ) ) ;
#66 =( LENGTH_UNIT ( ) NAMED_UNIT ( * ) SI_UNIT ( $, .METRE. ) );
#67 = SURFACE_SIDE_STYLE ('',( #126 ) ) ;
#68 = UNCERTAINTY_MEASURE_WITH_UNIT (LENGTH_MEASURE( 1.000000000000000100E-005 ), #19, 'distance_accuracy_value', 'NONE');
#69 = DIRECTION ( 'NONE',  ( 0.0000000000000000000, 0.0000000000000000000, -1.000000000000000000 ) ) ;
#70 = DIRECTION ( 'NONE',  ( 1.000000000000000000, 0.0000000000000000000, 0.0000000000000000000 ) ) ;
#71 = LENGTH_MEASURE_WITH_UNIT ( LENGTH_MEASURE( 0.02539999999999999900 ), #20 );
#72 = APPLICATION_CONTEXT ( 'automotive_design' ) ;
#73 = DIRECTION ( 'NONE',  ( 0.0000000000000000000, 0.0000000000000000000, 1.000000000000000000 ) ) ;
#74 =( CONVERSION_BASED_UNIT ( 'INCH', #157 ) LENGTH_UNIT ( ) NAMED_UNIT ( #183 ) );
#75 = FILL_AREA_STYLE_COLOUR ( '', #60 ) ;
#76 = SHAPE_DEFINITION_REPRESENTATION ( #162, #160 ) ;
#77 = DIRECTION ( 'NONE',  ( -0.0000000000000000000, -0.0000000000000000000, 1.000000000000000000 ) ) ;
#78 = CARTESIAN_POINT ( 'NONE',  ( -8.999999999999998200, 18.00000000000000000, -9.000000000000001800 ) ) ;
#79 = AXIS2_PLACEMENT_3D ( 'NONE', #121, #103, #102 ) ;
#80 = DIRECTION ( 'NONE',  ( -0.0000000000000000000, -0.0000000000000000000, 1.000000000000000000 ) ) ;
#81 =( NAMED_UNIT ( * ) PLANE_ANGLE_UNIT ( ) SI_UNIT ( $, .RADIAN. ) );
#82 =( CONVERSION_BASED_UNIT ( 'INCH', #132 ) LENGTH_UNIT ( ) NAMED_UNIT ( #180 ) );
#83 = CARTESIAN_POINT ( 'NONE',  ( -8.999999999999998200, 18.00000000000000000, -9.000000000000001800 ) ) ;
#84 =( NAMED_UNIT ( * ) PLANE_ANGLE_UNIT ( ) SI_UNIT ( $, .RADIAN. ) );
#85 = CARTESIAN_POINT ( 'NONE',  ( -8.999999999999998200, 18.00000000000000000, -9.000000000000001800 ) ) ;
#86 = CARTESIAN_POINT ( 'NONE',  ( 9.000000000000001800, 18.00000000000000000, 8.999999999999996400 ) ) ;
#87 =( GEOMETRIC_REPRESENTATION_CONTEXT ( 3 ) GLOBAL_UNCERTAINTY_ASSIGNED_CONTEXT ( ( #8 ) ) GLOBAL_UNIT_ASSIGNED_CONTEXT ( ( #82, #81, #123 ) ) REPRESENTATION_CONTEXT ( 'NONE', 'WORKASPACE' ) );
#88 = PLANE ( 'NONE',  #79 ) ;
#89 = CARTESIAN_POINT ( 'NONE',  ( -8.999999999999998200, 18.00000000000000000, 8.999999999999996400 ) ) ;
#90 = PLANE ( 'NONE',  #175 ) ;
#91 = DIRECTION ( 'NONE',  ( 0.0000000000000000000, -0.0000000000000000000, -1.000000000000000000 ) ) ;
#92 = CARTESIAN_POINT ( 'NONE',  ( 0.0000000000000000000, 0.0000000000000000000, 0.0000000000000000000 ) ) ;
#93 = CARTESIAN_POINT ( 'NONE',  ( -8.999999999999998200, 18.00000000000000000, 8.999999999999996400 ) ) ;
#94 = ORIENTED_EDGE ( 'NONE', *, *, #195, .F. ) ;
#95 = DIRECTION ( 'NONE',  ( 1.000000000000000000, 0.0000000000000000000, -0.0000000000000000000 ) ) ;
#96 = DIRECTION ( 'NONE',  ( -1.000000000000000000, -0.0000000000000000000, -0.0000000000000000000 ) ) ;
#97 = CARTESIAN_POINT ( 'NONE',  ( 9.000000000000001800, 0.0000000000000000000, 8.999999999999996400 ) ) ;
#98 = CARTESIAN_POINT ( 'NONE',  ( -8.999999999999998200, 18.00000000000000000, -9.000000000000001800 ) ) ;
#99 = DIRECTION ( 'NONE',  ( -0.0000000000000000000, -1.000000000000000000, -0.0000000000000000000 ) ) ;
#100 = PLANE ( 'NONE',  #38 ) ;
#101 = CARTESIAN_POINT ( 'NONE',  ( 9.000000000000001800, 0.0000000000000000000, -9.000000000000001800 ) ) ;
#102 = DIRECTION ( 'NONE',  ( 0.0000000000000000000, 0.0000000000000000000, 1.000000000000000000 ) ) ;
#103 = DIRECTION ( 'NONE',  ( -1.000000000000000000, 0.0000000000000000000, 0.0000000000000000000 ) ) ;
#104 = CARTESIAN_POINT ( 'NONE',  ( 9.000000000000001800, 18.00000000000000000, 8.999999999999996400 ) ) ;
#105 = DIRECTION ( 'NONE',  ( 0.0000000000000000000, 0.0000000000000000000, -1.000000000000000000 ) ) ;
#106 = CARTESIAN_POINT ( 'NONE',  ( -8.999999999999998200, 0.0000000000000000000, -9.000000000000001800 ) ) ;
#107 = CARTESIAN_POINT ( 'NONE',  ( 9.000000000000001800, 0.0000000000000000000, 8.999999999999996400 ) ) ;
#108 = ORIENTED_EDGE ( 'NONE', *, *, #203, .T. ) ;
#109 = DIRECTION ( 'NONE',  ( 0.0000000000000000000, -0.0000000000000000000, -1.000000000000000000 ) ) ;
#110 = EDGE_LOOP ( 'NONE', ( #158, #124, #209, #131 ) ) ;
#111 = DIRECTION ( 'NONE',  ( -0.0000000000000000000, -1.000000000000000000, -0.0000000000000000000 ) ) ;
#112 = DIRECTION ( 'NONE',  ( 1.000000000000000000, 0.0000000000000000000, 0.0000000000000000000 ) ) ;
#113 = CARTESIAN_POINT ( 'NONE',  ( 9.000000000000001800, 18.00000000000000000, -9.000000000000001800 ) ) ;
#114 = CARTESIAN_POINT ( 'NONE',  ( 9.000000000000001800, 18.00000000000000000, 8.999999999999996400 ) ) ;
#115 = DIRECTION ( 'NONE',  ( 0.0000000000000000000, 0.0000000000000000000, -1.000000000000000000 ) ) ;
#116 = DIRECTION ( 'NONE',  ( 0.0000000000000000000, 0.0000000000000000000, -1.000000000000000000 ) ) ;
#117 = DIRECTION ( 'NONE',  ( 1.000000000000000000, -0.0000000000000000000, 0.0000000000000000000 ) ) ;
#118 = DIRECTION ( 'NONE',  ( 0.0000000000000000000, -1.000000000000000000, 0.0000000000000000000 ) ) ;
#119 = CARTESIAN_POINT ( 'NONE',  ( -8.999999999999998200, 18.00000000000000000, 8.999999999999996400 ) ) ;
#120 = DIRECTION ( 'NONE',  ( 0.0000000000000000000, -1.000000000000000000, 0.0000000000000000000 ) ) ;
#121 = CARTESIAN_POINT ( 'NONE',  ( 9.000000000000001800, 18.00000000000000000, 8.999999999999996400 ) ) ;
#122 = ORIENTED_EDGE ( 'NONE', *, *, #192, .F. ) ;
#123 =( NAMED_UNIT ( * ) SI_UNIT ( $, .STERADIAN. ) SOLID_ANGLE_UNIT ( ) );
#124 = ORIENTED_EDGE ( 'NONE', *, *, #178, .F. ) ;
#125 = VERTEX_POINT ( 'NONE', #98 ) ;
#126 = SURFACE_STYLE_FILL_AREA ( #63 ) ;
#127 = LINE ( 'NONE', #85, #128 ) ;
#128 = VECTOR ( 'NONE', #168, 39.37007874015748100 ) ;
#129 = PRESENTATION_STYLE_ASSIGNMENT (( #56 ) ) ;
#130 = COLOUR_RGB ( '',0.2509803921568627400, 0.2509803921568627400, 0.2509803921568627400 ) ;
#131 = ORIENTED_EDGE ( 'NONE', *, *, #206, .T. ) ;
#132 = LENGTH_MEASURE_WITH_UNIT ( LENGTH_MEASURE( 0.02539999999999999900 ), #159 );
#133 = LINE ( 'NONE', #59, #136 ) ;
#134 = LINE ( 'NONE', #89, #143 ) ;
#135 = LINE ( 'NONE', #49, #2 ) ;
#136 = VECTOR ( 'NONE', #112, 39.37007874015748100 ) ;
#137 = FACE_OUTER_BOUND ( 'NONE', #23, .T. ) ;
#138 = VECTOR ( 'NONE', #77, 39.37007874015748100 ) ;
#139 = FACE_OUTER_BOUND ( 'NONE', #37, .T. ) ;
#140 = LINE ( 'NONE', #107, #144 ) ;
#141 = LINE ( 'NONE', #199, #138 ) ;
#142 = LINE ( 'NONE', #106, #146 ) ;
#143 = VECTOR ( 'NONE', #70, 39.37007874015748100 ) ;
#144 = VECTOR ( 'NONE', #69, 39.37007874015748100 ) ;
#145 = LINE ( 'NONE', #78, #149 ) ;
#146 = VECTOR ( 'NONE', #96, 39.37007874015748100 ) ;
#147 = LINE ( 'NONE', #57, #151 ) ;
#148 = ORIENTED_EDGE ( 'NONE', *, *, #200, .T. ) ;
#149 = VECTOR ( 'NONE', #45, 39.37007874015748100 ) ;
#150 = LINE ( 'NONE', #187, #153 ) ;
#151 = VECTOR ( 'NONE', #99, 39.37007874015748100 ) ;
#152 = LINE ( 'NONE', #114, #155 ) ;
#153 = VECTOR ( 'NONE', #80, 39.37007874015748100 ) ;
#154 = LINE ( 'NONE', #104, #156 ) ;
#155 = VECTOR ( 'NONE', #105, 39.37007874015748100 ) ;
#156 = VECTOR ( 'NONE', #54, 39.37007874015748100 ) ;
#157 = LENGTH_MEASURE_WITH_UNIT ( LENGTH_MEASURE( 0.02539999999999999900 ), #66 );
#158 = ORIENTED_EDGE ( 'NONE', *, *, #195, .T. ) ;
#159 =( LENGTH_UNIT ( ) NAMED_UNIT ( * ) SI_UNIT ( $, .METRE. ) );
#160 = ADVANCED_BREP_SHAPE_REPRESENTATION ( 'Simple Robot Starting Size', ( #165, #170 ), #177 ) ;
#161 = UNCERTAINTY_MEASURE_WITH_UNIT (LENGTH_MEASURE( 1.000000000000000100E-005 ), #74, 'distance_accuracy_value', 'NONE');
#162 = PRODUCT_DEFINITION_SHAPE ( 'NONE', 'NONE',  #169 ) ;
#163 = ORIENTED_EDGE ( 'NONE', *, *, #192, .T. ) ;
#164 = CARTESIAN_POINT ( 'NONE',  ( -8.999999999999998200, 0.0000000000000000000, -9.000000000000001800 ) ) ;
#165 = MANIFOLD_SOLID_BREP ( 'Boss-Extrude1', #29 ) ;
#166 = PRODUCT_RELATED_PRODUCT_CATEGORY ( 'part', '', ( #1 ) ) ;
#167 = PRODUCT_DEFINITION_FORMATION_WITH_SPECIFIED_SOURCE ( 'ANY', '', #1, .NOT_KNOWN. ) ;
#168 = DIRECTION ( 'NONE',  ( -0.0000000000000000000, -1.000000000000000000, -0.0000000000000000000 ) ) ;
#169 = PRODUCT_DEFINITION ( 'UNKNOWN', '', #167, #193 ) ;
#170 = AXIS2_PLACEMENT_3D ( 'NONE', #92, #15, #14 ) ;
#171 =( GEOMETRIC_REPRESENTATION_CONTEXT ( 3 ) GLOBAL_UNCERTAINTY_ASSIGNED_CONTEXT ( ( #68 ) ) GLOBAL_UNIT_ASSIGNED_CONTEXT ( ( #19, #17, #16 ) ) REPRESENTATION_CONTEXT ( 'NONE', 'WORKASPACE' ) );
#172 = MECHANICAL_DESIGN_GEOMETRIC_PRESENTATION_REPRESENTATION (  '', ( #174 ), #171 ) ;
#173 = PRESENTATION_LAYER_ASSIGNMENT (  '', '', ( #174 ) ) ;
#174 = STYLED_ITEM ( 'NONE', ( #64 ), #160 ) ;
#175 = AXIS2_PLACEMENT_3D ( 'NONE', #113, #118, #109 ) ;
#176 = FACE_OUTER_BOUND ( 'NONE', #3, .T. ) ;
#177 =( GEOMETRIC_REPRESENTATION_CONTEXT ( 3 ) GLOBAL_UNCERTAINTY_ASSIGNED_CONTEXT ( ( #161 ) ) GLOBAL_UNIT_ASSIGNED_CONTEXT ( ( #74, #84, #61 ) ) REPRESENTATION_CONTEXT ( 'NONE', 'WORKASPACE' ) );
#178 = EDGE_CURVE ( 'NONE', #39, #35, #135, .T. ) ;
#179 = DIMENSIONAL_EXPONENTS ( 1.000000000000000000, 0.0000000000000000000, 0.0000000000000000000, 0.0000000000000000000, 0.0000000000000000000, 0.0000000000000000000, 0.0000000000000000000 ) ;
#180 = DIMENSIONAL_EXPONENTS ( 1.000000000000000000, 0.0000000000000000000, 0.0000000000000000000, 0.0000000000000000000, 0.0000000000000000000, 0.0000000000000000000, 0.0000000000000000000 ) ;
#181 = ORIENTED_EDGE ( 'NONE', *, *, #182, .T. ) ;
#182 = EDGE_CURVE ( 'NONE', #22, #42, #133, .T. ) ;
#183 = DIMENSIONAL_EXPONENTS ( 1.000000000000000000, 0.0000000000000000000, 0.0000000000000000000, 0.0000000000000000000, 0.0000000000000000000, 0.0000000000000000000, 0.0000000000000000000 ) ;
#184 = ADVANCED_FACE ( 'NONE', ( #7 ), #100, .F. ) ;
#185 = ORIENTED_EDGE ( 'NONE', *, *, #194, .F. ) ;
#186 = ADVANCED_FACE ( 'NONE', ( #137 ), #41, .F. ) ;
#187 = CARTESIAN_POINT ( 'NONE',  ( -8.999999999999998200, 18.00000000000000000, 8.999999999999996400 ) ) ;
#188 = ADVANCED_FACE ( 'NONE', ( #139 ), #44, .T. ) ;
#189 = ADVANCED_FACE ( 'NONE', ( #6 ), #88, .F. ) ;
#190 = ADVANCED_FACE ( 'NONE', ( #176 ), #90, .F. ) ;
#191 = ADVANCED_FACE ( 'NONE', ( #210 ), #52, .F. ) ;
#192 = EDGE_CURVE ( 'NONE', #18, #22, #141, .T. ) ;
#193 = PRODUCT_DEFINITION_CONTEXT ( 'detailed design', #11, 'design' ) ;
#194 = EDGE_CURVE ( 'NONE', #28, #24, #134, .T. ) ;
#195 = EDGE_CURVE ( 'NONE', #42, #35, #140, .T. ) ;
#196 = EDGE_CURVE ( 'NONE', #35, #18, #142, .T. ) ;
#197 = AXIS2_PLACEMENT_3D ( 'NONE', #119, #117, #116 ) ;
#198 = EDGE_CURVE ( 'NONE', #39, #125, #145, .T. ) ;
#199 = CARTESIAN_POINT ( 'NONE',  ( -8.999999999999998200, 0.0000000000000000000, 8.999999999999996400 ) ) ;
#200 = EDGE_CURVE ( 'NONE', #28, #22, #147, .T. ) ;
#201 = EDGE_CURVE ( 'NONE', #125, #28, #150, .T. ) ;
#202 = STYLED_ITEM ( 'NONE', ( #129 ), #165 ) ;
#203 = EDGE_CURVE ( 'NONE', #24, #39, #152, .T. ) ;
#204 = PRESENTATION_LAYER_ASSIGNMENT (  '', '', ( #202 ) ) ;
#205 = MECHANICAL_DESIGN_GEOMETRIC_PRESENTATION_REPRESENTATION (  '', ( #202 ), #87 ) ;
#206 = EDGE_CURVE ( 'NONE', #24, #42, #154, .T. ) ;
#207 = ORIENTED_EDGE ( 'NONE', *, *, #182, .F. ) ;
#208 = AXIS2_PLACEMENT_3D ( 'NONE', #93, #115, #27 ) ;
#209 = ORIENTED_EDGE ( 'NONE', *, *, #203, .F. ) ;
#210 = FACE_OUTER_BOUND ( 'NONE', #32, .T. ) ;
#211 = AXIS2_PLACEMENT_3D ( 'NONE', #30, #120, #91 ) ;
ENDSEC;
END-ISO-10303-21;
