ISO-10303-21;
HEADER;
FILE_DESCRIPTION (( 'STEP AP203' ),
    '1' );
FILE_NAME ('am-3678 - Small Boss 775 Sport Bushing.STEP',
    '2017-11-14T19:41:31',
    ( '' ),
    ( '' ),
    'SwSTEP 2.0',
    'SolidWorks 2017',
    '' );
FILE_SCHEMA (( 'CONFIG_CONTROL_DESIGN' ));
ENDSEC;

DATA;
#1 = EDGE_CURVE ( 'NONE', #17, #118, #161, .T. ) ;
#2 = VERTEX_POINT ( 'NONE', #31 ) ;
#3 = SECURITY_CLASSIFICATION_LEVEL ( 'unclassified' ) ;
#4 = PERSON_AND_ORGANIZATION_ROLE ( 'creator' ) ;
#5 = COORDINATED_UNIVERSAL_TIME_OFFSET ( 5, 0, .BEHIND. ) ;
#6 = PERSON_AND_ORGANIZATION_ROLE ( 'design_supplier' ) ;
#7 = CC_DESIGN_APPROVAL ( #244, ( #109 ) ) ;
#8 = PRODUCT ( 'am-3678 - Small Boss 775 Sport Bushing', 'am-3678 - Small Boss 775 Sport Bushing', '', ( #155 ) ) ;
#9 = MANIFOLD_SOLID_BREP ( 'Boss-Extrude1', #20 ) ;
#10 = ORIENTED_EDGE ( 'NONE', *, *, #248, .F. ) ;
#11 = ORIENTED_EDGE ( 'NONE', *, *, #1, .F. ) ;
#12 = ORIENTED_EDGE ( 'NONE', *, *, #70, .T. ) ;
#13 = CALENDAR_DATE ( 2017, 14, 11 ) ;
#14 = ORIENTED_EDGE ( 'NONE', *, *, #122, .F. ) ;
#15 = APPLICATION_PROTOCOL_DEFINITION ( 'international standard', 'config_control_design', 1994, #208 ) ;
#16 = AXIS2_PLACEMENT_3D ( 'NONE', #124, #221, #218 ) ;
#17 = VERTEX_POINT ( 'NONE', #49 ) ;
#18 = CALENDAR_DATE ( 2017, 14, 11 ) ;
#19 = FACE_OUTER_BOUND ( 'NONE', #137, .T. ) ;
#20 = CLOSED_SHELL ( 'NONE', ( #126, #117, #162, #222, #69, #159 ) ) ;
#21 = CIRCLE ( 'NONE', #172, 0.2944999999999999800 ) ;
#22 = CARTESIAN_POINT ( 'NONE',  ( 0.3445000000000000300, 4.218908223062632300E-017, 0.1250000000000000000 ) ) ;
#23 = EDGE_CURVE ( 'NONE', #174, #2, #242, .T. ) ;
#24 = AXIS2_PLACEMENT_3D ( 'NONE', #156, #207, #36 ) ;
#25 = SHAPE_DEFINITION_REPRESENTATION ( #180, #185 ) ;
#26 = APPROVAL_STATUS ( 'not_yet_approved' ) ;
#27 = EDGE_CURVE ( 'NONE', #105, #174, #59, .T. ) ;
#28 = DIRECTION ( 'NONE',  ( 1.000000000000000000, 0.0000000000000000000, 0.0000000000000000000 ) ) ;
#29 = APPROVAL_DATE_TIME ( #220, #244 ) ;
#30 = DIRECTION ( 'NONE',  ( 1.000000000000000000, 0.0000000000000000000, 0.0000000000000000000 ) ) ;
#31 = CARTESIAN_POINT ( 'NONE',  ( -0.2944999999999999800, 0.0000000000000000000, -0.1250000000000000000 ) ) ;
#32 = CC_DESIGN_SECURITY_CLASSIFICATION ( #177, ( #109 ) ) ;
#33 = PERSON_AND_ORGANIZATION_ROLE ( 'design_owner' ) ;
#34 = ORIENTED_EDGE ( 'NONE', *, *, #122, .T. ) ;
#35 = PLANE ( 'NONE',  #51 ) ;
#36 = DIRECTION ( 'NONE',  ( 1.000000000000000000, 0.0000000000000000000, 0.0000000000000000000 ) ) ;
#37 = ORIENTED_EDGE ( 'NONE', *, *, #198, .F. ) ;
#38 = APPROVAL_ROLE ( '' ) ;
#39 = CC_DESIGN_DATE_AND_TIME_ASSIGNMENT ( #135, #241, ( #171 ) ) ;
#40 = LINE ( 'NONE', #145, #95 ) ;
#41 = AXIS2_PLACEMENT_3D ( 'NONE', #150, #163, #158 ) ;
#42 = CARTESIAN_POINT ( 'NONE',  ( 0.0000000000000000000, 0.0000000000000000000, -0.1250000000000000000 ) ) ;
#43 = PERSON_AND_ORGANIZATION ( #112, #237 ) ;
#44 = FACE_OUTER_BOUND ( 'NONE', #123, .T. ) ;
#45 = COORDINATED_UNIVERSAL_TIME_OFFSET ( 5, 0, .BEHIND. ) ;
#46 = APPROVAL_STATUS ( 'not_yet_approved' ) ;
#47 = CC_DESIGN_APPROVAL ( #209, ( #177 ) ) ;
#48 = CC_DESIGN_DATE_AND_TIME_ASSIGNMENT ( #157, #224, ( #177 ) ) ;
#49 = CARTESIAN_POINT ( 'NONE',  ( -0.3445000000000000300, 0.0000000000000000000, 0.1250000000000000000 ) ) ;
#50 = FACE_BOUND ( 'NONE', #231, .T. ) ;
#51 = AXIS2_PLACEMENT_3D ( 'NONE', #234, #57, #77 ) ;
#52 = APPROVAL_PERSON_ORGANIZATION ( #212, #209, #128 ) ;
#53 = DIRECTION ( 'NONE',  ( 1.000000000000000000, 0.0000000000000000000, 0.0000000000000000000 ) ) ;
#54 = FACE_OUTER_BOUND ( 'NONE', #213, .T. ) ;
#55 = CARTESIAN_POINT ( 'NONE',  ( 0.0000000000000000000, 0.0000000000000000000, -0.1250000000000000000 ) ) ;
#56 = APPROVAL ( #235, 'UNSPECIFIED' ) ;
#57 = DIRECTION ( 'NONE',  ( 0.0000000000000000000, 0.0000000000000000000, 1.000000000000000000 ) ) ;
#58 = ORIENTED_EDGE ( 'NONE', *, *, #23, .F. ) ;
#59 = LINE ( 'NONE', #114, #205 ) ;
#60 = CARTESIAN_POINT ( 'NONE',  ( 0.0000000000000000000, 0.0000000000000000000, 0.1250000000000000000 ) ) ;
#61 = COORDINATED_UNIVERSAL_TIME_OFFSET ( 5, 0, .BEHIND. ) ;
#62 = EDGE_CURVE ( 'NONE', #149, #121, #86, .T. ) ;
#63 = CALENDAR_DATE ( 2017, 14, 11 ) ;
#64 = CYLINDRICAL_SURFACE ( 'NONE', #203, 0.2944999999999999800 ) ;
#65 = LOCAL_TIME ( 14, 41, 31.00000000000000000, #5 ) ;
#66 = EDGE_CURVE ( 'NONE', #17, #121, #175, .T. ) ;
#67 = DIRECTION ( 'NONE',  ( 0.0000000000000000000, 0.0000000000000000000, 1.000000000000000000 ) ) ;
#68 = ORIENTED_EDGE ( 'NONE', *, *, #23, .T. ) ;
#69 = ADVANCED_FACE ( 'NONE', ( #44 ), #154, .T. ) ;
#70 = EDGE_CURVE ( 'NONE', #105, #110, #21, .T. ) ;
#71 = CARTESIAN_POINT ( 'NONE',  ( 0.0000000000000000000, 0.0000000000000000000, -0.1250000000000000000 ) ) ;
#72 = EDGE_CURVE ( 'NONE', #121, #149, #84, .T. ) ;
#73 = CALENDAR_DATE ( 2017, 14, 11 ) ;
#74 = DESIGN_CONTEXT ( 'detailed design', #208, 'design' ) ;
#75 = EDGE_LOOP ( 'NONE', ( #93, #12, #34, #58 ) ) ;
#76 = AXIS2_PLACEMENT_3D ( 'NONE', #55, #247, #210 ) ;
#77 = DIRECTION ( 'NONE',  ( 1.000000000000000000, 0.0000000000000000000, -0.0000000000000000000 ) ) ;
#78 = PERSON_AND_ORGANIZATION ( #112, #237 ) ;
#79 = AXIS2_PLACEMENT_3D ( 'NONE', #151, #179, #192 ) ;
#80 = ORIENTED_EDGE ( 'NONE', *, *, #62, .T. ) ;
#81 = CC_DESIGN_PERSON_AND_ORGANIZATION_ASSIGNMENT ( #239, #4, ( #109 ) ) ;
#82 = ORIENTED_EDGE ( 'NONE', *, *, #70, .F. ) ;
#83 = DIMENSIONAL_EXPONENTS ( 1.000000000000000000, 0.0000000000000000000, 0.0000000000000000000, 0.0000000000000000000, 0.0000000000000000000, 0.0000000000000000000, 0.0000000000000000000 ) ;
#84 = CIRCLE ( 'NONE', #216, 0.3445000000000000300 ) ;
#85 = PERSON_AND_ORGANIZATION_ROLE ( 'classification_officer' ) ;
#86 = CIRCLE ( 'NONE', #76, 0.3445000000000000300 ) ;
#87 = APPROVAL_ROLE ( '' ) ;
#88 = CYLINDRICAL_SURFACE ( 'NONE', #41, 0.2944999999999999800 ) ;
#89 = DIRECTION ( 'NONE',  ( -0.0000000000000000000, -0.0000000000000000000, -1.000000000000000000 ) ) ;
#90 = PERSON_AND_ORGANIZATION ( #112, #237 ) ;
#91 = CC_DESIGN_APPROVAL ( #56, ( #171 ) ) ;
#92 =( LENGTH_UNIT ( ) NAMED_UNIT ( * ) SI_UNIT ( $, .METRE. ) );
#93 = ORIENTED_EDGE ( 'NONE', *, *, #27, .F. ) ;
#94 = DIRECTION ( 'NONE',  ( -0.0000000000000000000, -0.0000000000000000000, -1.000000000000000000 ) ) ;
#95 = VECTOR ( 'NONE', #200, 39.37007874015748100 ) ;
#96 = CARTESIAN_POINT ( 'NONE',  ( 0.0000000000000000000, 0.0000000000000000000, 0.0000000000000000000 ) ) ;
#97 = COORDINATED_UNIVERSAL_TIME_OFFSET ( 5, 0, .BEHIND. ) ;
#98 = APPROVAL_DATE_TIME ( #144, #56 ) ;
#99 = DIRECTION ( 'NONE',  ( 0.0000000000000000000, 0.0000000000000000000, 1.000000000000000000 ) ) ;
#100 = DIRECTION ( 'NONE',  ( -0.0000000000000000000, -0.0000000000000000000, -1.000000000000000000 ) ) ;
#101 = EDGE_CURVE ( 'NONE', #110, #105, #202, .T. ) ;
#102 = APPROVAL_PERSON_ORGANIZATION ( #125, #244, #87 ) ;
#103 = LINE ( 'NONE', #214, #183 ) ;
#104 = APPLICATION_PROTOCOL_DEFINITION ( 'international standard', 'config_control_design', 1994, #108 ) ;
#105 = VERTEX_POINT ( 'NONE', #197 ) ;
#106 = EDGE_CURVE ( 'NONE', #118, #149, #103, .T. ) ;
#107 = DIRECTION ( 'NONE',  ( -0.0000000000000000000, -0.0000000000000000000, -1.000000000000000000 ) ) ;
#108 = APPLICATION_CONTEXT ( 'configuration controlled 3d designs of mechanical parts and assemblies' ) ;
#109 = PRODUCT_DEFINITION_FORMATION_WITH_SPECIFIED_SOURCE ( 'ANY', '', #8, .NOT_KNOWN. ) ;
#110 = VERTEX_POINT ( 'NONE', #240 ) ;
#111 = CARTESIAN_POINT ( 'NONE',  ( -0.3445000000000000300, 0.0000000000000000000, 0.1250000000000000000 ) ) ;
#112 = PERSON ( 'UNSPECIFIED', 'UNSPECIFIED', 'UNSPECIFIED', ('UNSPECIFIED'), ('UNSPECIFIED'), ('UNSPECIFIED') ) ;
#113 =( CONVERSION_BASED_UNIT ( 'INCH', #132 ) LENGTH_UNIT ( ) NAMED_UNIT ( #83 ) );
#114 = CARTESIAN_POINT ( 'NONE',  ( 0.2944999999999999800, 3.606584823488955200E-017, 0.1250000000000000000 ) ) ;
#115 = DIRECTION ( 'NONE',  ( -1.000000000000000000, 0.0000000000000000000, 0.0000000000000000000 ) ) ;
#116 = EDGE_LOOP ( 'NONE', ( #249, #204 ) ) ;
#117 = ADVANCED_FACE ( 'NONE', ( #19 ), #201, .T. ) ;
#118 = VERTEX_POINT ( 'NONE', #22 ) ;
#119 = DATE_AND_TIME ( #63, #65 ) ;
#120 = LOCAL_TIME ( 14, 41, 31.00000000000000000, #147 ) ;
#121 = VERTEX_POINT ( 'NONE', #184 ) ;
#122 = EDGE_CURVE ( 'NONE', #110, #2, #40, .T. ) ;
#123 = EDGE_LOOP ( 'NONE', ( #170, #11, #176, #168 ) ) ;
#124 = CARTESIAN_POINT ( 'NONE',  ( 0.0000000000000000000, 0.0000000000000000000, 0.1250000000000000000 ) ) ;
#125 = PERSON_AND_ORGANIZATION ( #112, #237 ) ;
#126 = ADVANCED_FACE ( 'NONE', ( #153 ), #88, .F. ) ;
#127 = CARTESIAN_POINT ( 'NONE',  ( 0.0000000000000000000, 0.0000000000000000000, 0.1250000000000000000 ) ) ;
#128 = APPROVAL_ROLE ( '' ) ;
#129 = APPROVAL_PERSON_ORGANIZATION ( #169, #56, #38 ) ;
#130 = EDGE_LOOP ( 'NONE', ( #251, #191, #10, #14 ) ) ;
#131 = DIRECTION ( 'NONE',  ( -1.000000000000000000, 0.0000000000000000000, 0.0000000000000000000 ) ) ;
#132 = LENGTH_MEASURE_WITH_UNIT ( LENGTH_MEASURE( 0.02539999999999999900 ), #92 );
#133 = CARTESIAN_POINT ( 'NONE',  ( 0.0000000000000000000, 0.0000000000000000000, 0.1250000000000000000 ) ) ;
#134 = DIRECTION ( 'NONE',  ( 0.0000000000000000000, 0.0000000000000000000, 1.000000000000000000 ) ) ;
#135 = DATE_AND_TIME ( #18, #252 ) ;
#136 = ORIENTED_EDGE ( 'NONE', *, *, #1, .T. ) ;
#137 = EDGE_LOOP ( 'NONE', ( #37, #164, #80, #219 ) ) ;
#138 = VECTOR ( 'NONE', #100, 39.37007874015748100 ) ;
#139 = AXIS2_PLACEMENT_3D ( 'NONE', #166, #232, #141 ) ;
#140 = DIRECTION ( 'NONE',  ( -0.0000000000000000000, -0.0000000000000000000, -1.000000000000000000 ) ) ;
#141 = DIRECTION ( 'NONE',  ( -1.000000000000000000, 0.0000000000000000000, 0.0000000000000000000 ) ) ;
#142 = PLANE ( 'NONE',  #79 ) ;
#143 = AXIS2_PLACEMENT_3D ( 'NONE', #133, #229, #193 ) ;
#144 = DATE_AND_TIME ( #194, #148 ) ;
#145 = CARTESIAN_POINT ( 'NONE',  ( -0.2944999999999999800, 0.0000000000000000000, 0.1250000000000000000 ) ) ;
#146 = DIRECTION ( 'NONE',  ( 1.000000000000000000, 0.0000000000000000000, 0.0000000000000000000 ) ) ;
#147 = COORDINATED_UNIVERSAL_TIME_OFFSET ( 5, 0, .BEHIND. ) ;
#148 = LOCAL_TIME ( 14, 41, 31.00000000000000000, #61 ) ;
#149 = VERTEX_POINT ( 'NONE', #195 ) ;
#150 = CARTESIAN_POINT ( 'NONE',  ( 0.0000000000000000000, 0.0000000000000000000, 0.1250000000000000000 ) ) ;
#151 = CARTESIAN_POINT ( 'NONE',  ( 0.0000000000000000000, 0.0000000000000000000, -0.1250000000000000000 ) ) ;
#152 = CIRCLE ( 'NONE', #196, 0.2944999999999999800 ) ;
#153 = FACE_OUTER_BOUND ( 'NONE', #130, .T. ) ;
#154 = CYLINDRICAL_SURFACE ( 'NONE', #215, 0.3445000000000000300 ) ;
#155 = MECHANICAL_CONTEXT ( 'NONE', #108, 'mechanical' ) ;
#156 = CARTESIAN_POINT ( 'NONE',  ( 0.0000000000000000000, 0.0000000000000000000, 0.1250000000000000000 ) ) ;
#157 = DATE_AND_TIME ( #73, #206 ) ;
#158 = DIRECTION ( 'NONE',  ( -1.000000000000000000, 0.0000000000000000000, 0.0000000000000000000 ) ) ;
#159 = ADVANCED_FACE ( 'NONE', ( #243 ), #64, .F. ) ;
#160 = AXIS2_PLACEMENT_3D ( 'NONE', #71, #99, #226 ) ;
#161 = CIRCLE ( 'NONE', #143, 0.3445000000000000300 ) ;
#162 = ADVANCED_FACE ( 'NONE', ( #54, #50 ), #35, .T. ) ;
#163 = DIRECTION ( 'NONE',  ( -0.0000000000000000000, -0.0000000000000000000, -1.000000000000000000 ) ) ;
#164 = ORIENTED_EDGE ( 'NONE', *, *, #106, .T. ) ;
#165 = ORIENTED_EDGE ( 'NONE', *, *, #101, .F. ) ;
#166 = CARTESIAN_POINT ( 'NONE',  ( 0.0000000000000000000, 0.0000000000000000000, 0.1250000000000000000 ) ) ;
#167 = AXIS2_PLACEMENT_3D ( 'NONE', #96, #230, #53 ) ;
#168 = ORIENTED_EDGE ( 'NONE', *, *, #72, .T. ) ;
#169 = PERSON_AND_ORGANIZATION ( #112, #237 ) ;
#170 = ORIENTED_EDGE ( 'NONE', *, *, #106, .F. ) ;
#171 = PRODUCT_DEFINITION ( 'UNKNOWN', '', #109, #74 ) ;
#172 = AXIS2_PLACEMENT_3D ( 'NONE', #60, #67, #28 ) ;
#173 = DIRECTION ( 'NONE',  ( 0.0000000000000000000, 0.0000000000000000000, 1.000000000000000000 ) ) ;
#174 = VERTEX_POINT ( 'NONE', #190 ) ;
#175 = LINE ( 'NONE', #111, #138 ) ;
#176 = ORIENTED_EDGE ( 'NONE', *, *, #66, .T. ) ;
#177 = SECURITY_CLASSIFICATION ( '', '', #3 ) ;
#178 =( NAMED_UNIT ( * ) PLANE_ANGLE_UNIT ( ) SI_UNIT ( $, .RADIAN. ) );
#179 = DIRECTION ( 'NONE',  ( 0.0000000000000000000, 0.0000000000000000000, 1.000000000000000000 ) ) ;
#180 = PRODUCT_DEFINITION_SHAPE ( 'NONE', 'NONE',  #171 ) ;
#181 = ORIENTED_EDGE ( 'NONE', *, *, #198, .T. ) ;
#182 = PERSON_AND_ORGANIZATION_ROLE ( 'creator' ) ;
#183 = VECTOR ( 'NONE', #107, 39.37007874015748100 ) ;
#184 = CARTESIAN_POINT ( 'NONE',  ( -0.3445000000000000300, 0.0000000000000000000, -0.1250000000000000000 ) ) ;
#185 = ADVANCED_BREP_SHAPE_REPRESENTATION ( 'am-3678 - Small Boss 775 Sport Bushing', ( #9, #167 ), #223 ) ;
#186 = CARTESIAN_POINT ( 'NONE',  ( 0.0000000000000000000, 0.0000000000000000000, -0.1250000000000000000 ) ) ;
#187 = CC_DESIGN_PERSON_AND_ORGANIZATION_ASSIGNMENT ( #188, #33, ( #8 ) ) ;
#188 = PERSON_AND_ORGANIZATION ( #112, #237 ) ;
#189 =( NAMED_UNIT ( * ) SI_UNIT ( $, .STERADIAN. ) SOLID_ANGLE_UNIT ( ) );
#190 = CARTESIAN_POINT ( 'NONE',  ( 0.2944999999999999800, 3.606584823488955200E-017, -0.1250000000000000000 ) ) ;
#191 = ORIENTED_EDGE ( 'NONE', *, *, #27, .T. ) ;
#192 = DIRECTION ( 'NONE',  ( 1.000000000000000000, 0.0000000000000000000, -0.0000000000000000000 ) ) ;
#193 = DIRECTION ( 'NONE',  ( 1.000000000000000000, 0.0000000000000000000, 0.0000000000000000000 ) ) ;
#194 = CALENDAR_DATE ( 2017, 14, 11 ) ;
#195 = CARTESIAN_POINT ( 'NONE',  ( 0.3445000000000000300, 4.218908223062632300E-017, -0.1250000000000000000 ) ) ;
#196 = AXIS2_PLACEMENT_3D ( 'NONE', #186, #173, #30 ) ;
#197 = CARTESIAN_POINT ( 'NONE',  ( 0.2944999999999999800, 3.606584823488955200E-017, 0.1250000000000000000 ) ) ;
#198 = EDGE_CURVE ( 'NONE', #118, #17, #246, .T. ) ;
#199 = APPROVAL_DATE_TIME ( #119, #209 ) ;
#200 = DIRECTION ( 'NONE',  ( -0.0000000000000000000, -0.0000000000000000000, -1.000000000000000000 ) ) ;
#201 = CYLINDRICAL_SURFACE ( 'NONE', #139, 0.3445000000000000300 ) ;
#202 = CIRCLE ( 'NONE', #16, 0.2944999999999999800 ) ;
#203 = AXIS2_PLACEMENT_3D ( 'NONE', #245, #94, #115 ) ;
#204 = ORIENTED_EDGE ( 'NONE', *, *, #62, .F. ) ;
#205 = VECTOR ( 'NONE', #89, 39.37007874015748100 ) ;
#206 = LOCAL_TIME ( 14, 41, 31.00000000000000000, #97 ) ;
#207 = DIRECTION ( 'NONE',  ( 0.0000000000000000000, 0.0000000000000000000, 1.000000000000000000 ) ) ;
#208 = APPLICATION_CONTEXT ( 'configuration controlled 3d designs of mechanical parts and assemblies' ) ;
#209 = APPROVAL ( #46, 'UNSPECIFIED' ) ;
#210 = DIRECTION ( 'NONE',  ( 1.000000000000000000, 0.0000000000000000000, 0.0000000000000000000 ) ) ;
#211 = FACE_BOUND ( 'NONE', #217, .T. ) ;
#212 = PERSON_AND_ORGANIZATION ( #112, #237 ) ;
#213 = EDGE_LOOP ( 'NONE', ( #136, #181 ) ) ;
#214 = CARTESIAN_POINT ( 'NONE',  ( 0.3445000000000000300, 4.218908223062632300E-017, 0.1250000000000000000 ) ) ;
#215 = AXIS2_PLACEMENT_3D ( 'NONE', #127, #140, #131 ) ;
#216 = AXIS2_PLACEMENT_3D ( 'NONE', #42, #134, #146 ) ;
#217 = EDGE_LOOP ( 'NONE', ( #227, #68 ) ) ;
#218 = DIRECTION ( 'NONE',  ( 1.000000000000000000, 0.0000000000000000000, 0.0000000000000000000 ) ) ;
#219 = ORIENTED_EDGE ( 'NONE', *, *, #66, .F. ) ;
#220 = DATE_AND_TIME ( #13, #120 ) ;
#221 = DIRECTION ( 'NONE',  ( 0.0000000000000000000, 0.0000000000000000000, 1.000000000000000000 ) ) ;
#222 = ADVANCED_FACE ( 'NONE', ( #225, #211 ), #142, .F. ) ;
#223 =( GEOMETRIC_REPRESENTATION_CONTEXT ( 3 ) GLOBAL_UNCERTAINTY_ASSIGNED_CONTEXT ( ( #233 ) ) GLOBAL_UNIT_ASSIGNED_CONTEXT ( ( #113, #178, #189 ) ) REPRESENTATION_CONTEXT ( 'NONE', 'WORKASPACE' ) );
#224 = DATE_TIME_ROLE ( 'classification_date' ) ;
#225 = FACE_OUTER_BOUND ( 'NONE', #116, .T. ) ;
#226 = DIRECTION ( 'NONE',  ( 1.000000000000000000, 0.0000000000000000000, 0.0000000000000000000 ) ) ;
#227 = ORIENTED_EDGE ( 'NONE', *, *, #248, .T. ) ;
#228 = PRODUCT_RELATED_PRODUCT_CATEGORY ( 'detail', '', ( #8 ) ) ;
#229 = DIRECTION ( 'NONE',  ( 0.0000000000000000000, 0.0000000000000000000, 1.000000000000000000 ) ) ;
#230 = DIRECTION ( 'NONE',  ( 0.0000000000000000000, 0.0000000000000000000, 1.000000000000000000 ) ) ;
#231 = EDGE_LOOP ( 'NONE', ( #165, #82 ) ) ;
#232 = DIRECTION ( 'NONE',  ( -0.0000000000000000000, -0.0000000000000000000, -1.000000000000000000 ) ) ;
#233 = UNCERTAINTY_MEASURE_WITH_UNIT (LENGTH_MEASURE( 1.000000000000000100E-005 ), #113, 'distance_accuracy_value', 'NONE');
#234 = CARTESIAN_POINT ( 'NONE',  ( 0.0000000000000000000, 0.0000000000000000000, 0.1250000000000000000 ) ) ;
#235 = APPROVAL_STATUS ( 'not_yet_approved' ) ;
#236 = CC_DESIGN_PERSON_AND_ORGANIZATION_ASSIGNMENT ( #43, #182, ( #171 ) ) ;
#237 = ORGANIZATION ( 'UNSPECIFIED', 'UNSPECIFIED', '' ) ;
#238 = CC_DESIGN_PERSON_AND_ORGANIZATION_ASSIGNMENT ( #78, #6, ( #109 ) ) ;
#239 = PERSON_AND_ORGANIZATION ( #112, #237 ) ;
#240 = CARTESIAN_POINT ( 'NONE',  ( -0.2944999999999999800, 0.0000000000000000000, 0.1250000000000000000 ) ) ;
#241 = DATE_TIME_ROLE ( 'creation_date' ) ;
#242 = CIRCLE ( 'NONE', #160, 0.2944999999999999800 ) ;
#243 = FACE_OUTER_BOUND ( 'NONE', #75, .T. ) ;
#244 = APPROVAL ( #26, 'UNSPECIFIED' ) ;
#245 = CARTESIAN_POINT ( 'NONE',  ( 0.0000000000000000000, 0.0000000000000000000, 0.1250000000000000000 ) ) ;
#246 = CIRCLE ( 'NONE', #24, 0.3445000000000000300 ) ;
#247 = DIRECTION ( 'NONE',  ( 0.0000000000000000000, 0.0000000000000000000, 1.000000000000000000 ) ) ;
#248 = EDGE_CURVE ( 'NONE', #2, #174, #152, .T. ) ;
#249 = ORIENTED_EDGE ( 'NONE', *, *, #72, .F. ) ;
#250 = CC_DESIGN_PERSON_AND_ORGANIZATION_ASSIGNMENT ( #90, #85, ( #177 ) ) ;
#251 = ORIENTED_EDGE ( 'NONE', *, *, #101, .T. ) ;
#252 = LOCAL_TIME ( 14, 41, 31.00000000000000000, #45 ) ;
ENDSEC;
END-ISO-10303-21;
