ISO-10303-21;
HEADER;
FILE_DESCRIPTION (( 'STEP AP214' ),
    '1' );
FILE_NAME ('am-2094 8mm id, shielded ball bearing (608ZZ).STEP',
    '2014-08-21T20:06:49',
    ( '' ),
    ( '' ),
    'SwSTEP 2.0',
    'SolidWorks 2014',
    '' );
FILE_SCHEMA (( 'AUTOMOTIVE_DESIGN' ));
ENDSEC;

DATA;
#1 = ORIENTED_EDGE ( 'NONE', *, *, #301, .F. ) ;
#2 = CARTESIAN_POINT ( 'NONE',  ( 0.0000000000000000000, 0.2760000000000000200, 0.0000000000000000000 ) ) ;
#3 =( LENGTH_UNIT ( ) NAMED_UNIT ( * ) SI_UNIT ( $, .METRE. ) );
#4 = CIRCLE ( 'NONE', #240, 0.01000000000000003000 ) ;
#5 = FACE_OUTER_BOUND ( 'NONE', #156, .T. ) ;
#6 = DIRECTION ( 'NONE',  ( -0.0000000000000000000, -1.000000000000000000, -0.0000000000000000000 ) ) ;
#7 = DIRECTION ( 'NONE',  ( 0.0000000000000000000, 0.0000000000000000000, -1.000000000000000000 ) ) ;
#8 = ORIENTED_EDGE ( 'NONE', *, *, #293, .F. ) ;
#9 = DIRECTION ( 'NONE',  ( -0.0000000000000000000, -1.000000000000000000, -0.0000000000000000000 ) ) ;
#10 = ORIENTED_EDGE ( 'NONE', *, *, #306, .T. ) ;
#11 = ORIENTED_EDGE ( 'NONE', *, *, #296, .F. ) ;
#12 = VERTEX_POINT ( 'NONE', #15 ) ;
#13 = UNCERTAINTY_MEASURE_WITH_UNIT (LENGTH_MEASURE( 1.000000000000000100E-005 ), #153, 'distance_accuracy_value', 'NONE');
#14 = DIMENSIONAL_EXPONENTS ( 1.000000000000000000, 0.0000000000000000000, 0.0000000000000000000, 0.0000000000000000000, 0.0000000000000000000, 0.0000000000000000000, 0.0000000000000000000 ) ;
#15 = CARTESIAN_POINT ( 'NONE',  ( 1.928577636452524600E-017, 0.0000000000000000000, 0.1574803149606299200 ) ) ;
#16 = CARTESIAN_POINT ( 'NONE',  ( 0.0000000000000000000, 0.0000000000000000000, 0.0000000000000000000 ) ) ;
#17 = ORIENTED_EDGE ( 'NONE', *, *, #267, .F. ) ;
#18 = FACE_OUTER_BOUND ( 'NONE', #215, .T. ) ;
#19 = VERTEX_POINT ( 'NONE', #169 ) ;
#20 = DIRECTION ( 'NONE',  ( 0.0000000000000000000, 1.000000000000000000, 0.0000000000000000000 ) ) ;
#21 = UNCERTAINTY_MEASURE_WITH_UNIT (LENGTH_MEASURE( 1.000000000000000100E-005 ), #264, 'distance_accuracy_value', 'NONE');
#22 =( CONVERSION_BASED_UNIT ( 'INCH', #288 ) LENGTH_UNIT ( ) NAMED_UNIT ( #14 ) );
#23 = DIRECTION ( 'NONE',  ( -0.0000000000000000000, -1.000000000000000000, -0.0000000000000000000 ) ) ;
#24 =( NAMED_UNIT ( * ) PLANE_ANGLE_UNIT ( ) SI_UNIT ( $, .RADIAN. ) );
#25 = FACE_OUTER_BOUND ( 'NONE', #77, .T. ) ;
#26 =( GEOMETRIC_REPRESENTATION_CONTEXT ( 3 ) GLOBAL_UNCERTAINTY_ASSIGNED_CONTEXT ( ( #13 ) ) GLOBAL_UNIT_ASSIGNED_CONTEXT ( ( #153, #24, #176 ) ) REPRESENTATION_CONTEXT ( 'NONE', 'WORKASPACE' ) );
#27 = MECHANICAL_DESIGN_GEOMETRIC_PRESENTATION_REPRESENTATION (  '', ( #47 ), #26 ) ;
#28 = ORIENTED_EDGE ( 'NONE', *, *, #283, .F. ) ;
#29 = ORIENTED_EDGE ( 'NONE', *, *, #275, .F. ) ;
#30 = CIRCLE ( 'NONE', #204, 0.4430000000000001200 ) ;
#31 = VECTOR ( 'NONE', #230, 39.37007874015748100 ) ;
#32 = CARTESIAN_POINT ( 'NONE',  ( 0.0000000000000000000, 0.0000000000000000000, 0.0000000000000000000 ) ) ;
#33 = COLOUR_RGB ( '',1.000000000000000000, 0.9490196078431372100, 0.9098039215686274400 ) ;
#34 = PLANE ( 'NONE',  #108 ) ;
#35 = CIRCLE ( 'NONE', #216, 0.4430000000000001200 ) ;
#36 = ORIENTED_EDGE ( 'NONE', *, *, #278, .F. ) ;
#37 = VECTOR ( 'NONE', #103, 39.37007874015748100 ) ;
#38 = FILL_AREA_STYLE_COLOUR ( '', #50 ) ;
#39 = DIMENSIONAL_EXPONENTS ( 1.000000000000000000, 0.0000000000000000000, 0.0000000000000000000, 0.0000000000000000000, 0.0000000000000000000, 0.0000000000000000000, 0.0000000000000000000 ) ;
#40 = CIRCLE ( 'NONE', #217, 0.1574803149606299200 ) ;
#41 = CARTESIAN_POINT ( 'NONE',  ( 0.0000000000000000000, 0.009999999999999995000, 0.4330000000000000500 ) ) ;
#42 = FACE_OUTER_BOUND ( 'NONE', #155, .T. ) ;
#43 = ORIENTED_EDGE ( 'NONE', *, *, #307, .F. ) ;
#44 = DIRECTION ( 'NONE',  ( 0.0000000000000000000, 0.0000000000000000000, 1.000000000000000000 ) ) ;
#45 = VERTEX_POINT ( 'NONE', #146 ) ;
#46 = PRESENTATION_LAYER_ASSIGNMENT (  '', '', ( #47 ) ) ;
#47 = STYLED_ITEM ( 'NONE', ( #300 ), #194 ) ;
#48 = CARTESIAN_POINT ( 'NONE',  ( 0.0000000000000000000, 0.2760000000000000200, -0.1574803149606299200 ) ) ;
#49 =( NAMED_UNIT ( * ) SI_UNIT ( $, .STERADIAN. ) SOLID_ANGLE_UNIT ( ) );
#50 = COLOUR_RGB ( '',1.000000000000000000, 0.9490196078431372100, 0.9098039215686274400 ) ;
#51 = DIRECTION ( 'NONE',  ( 1.000000000000000000, -0.0000000000000000000, 1.224646799147353200E-016 ) ) ;
#52 = ORIENTED_EDGE ( 'NONE', *, *, #275, .T. ) ;
#53 = ORIENTED_EDGE ( 'NONE', *, *, #265, .T. ) ;
#54 = DIRECTION ( 'NONE',  ( 0.0000000000000000000, 0.0000000000000000000, 1.000000000000000000 ) ) ;
#55 = CIRCLE ( 'NONE', #227, 0.4330000000000000500 ) ;
#56 = CARTESIAN_POINT ( 'NONE',  ( 0.0000000000000000000, 0.009999999999999995000, 0.0000000000000000000 ) ) ;
#57 = DIRECTION ( 'NONE',  ( 0.0000000000000000000, 1.000000000000000000, 0.0000000000000000000 ) ) ;
#58 = CIRCLE ( 'NONE', #224, 0.4430000000000001200 ) ;
#59 = ORIENTED_EDGE ( 'NONE', *, *, #269, .T. ) ;
#60 = CARTESIAN_POINT ( 'NONE',  ( 0.0000000000000000000, 0.0000000000000000000, -0.1574803149606299200 ) ) ;
#61 = ADVANCED_FACE ( 'NONE', ( #160 ), #220, .T. ) ;
#62 = DIRECTION ( 'NONE',  ( 0.0000000000000000000, 0.0000000000000000000, 1.000000000000000000 ) ) ;
#63 = EDGE_LOOP ( 'NONE', ( #225, #239 ) ) ;
#64 = VERTEX_POINT ( 'NONE', #199 ) ;
#65 = DIRECTION ( 'NONE',  ( -0.0000000000000000000, -1.000000000000000000, -0.0000000000000000000 ) ) ;
#66 = APPLICATION_PROTOCOL_DEFINITION ( 'draft international standard', 'automotive_design', 1998, #85 ) ;
#67 = PRODUCT ( 'am-2094 8mm id, shielded ball bearing (608ZZ)', 'am-2094 8mm id, shielded ball bearing (608ZZ)', '', ( #231 ) ) ;
#68 = DIRECTION ( 'NONE',  ( 1.000000000000000000, 0.0000000000000000000, 0.0000000000000000000 ) ) ;
#69 = CLOSED_SHELL ( 'NONE', ( #78, #166, #295, #165, #145, #323, #61, #297, #256, #80 ) ) ;
#70 = ORIENTED_EDGE ( 'NONE', *, *, #296, .T. ) ;
#71 = DIMENSIONAL_EXPONENTS ( 1.000000000000000000, 0.0000000000000000000, 0.0000000000000000000, 0.0000000000000000000, 0.0000000000000000000, 0.0000000000000000000, 0.0000000000000000000 ) ;
#72 = CARTESIAN_POINT ( 'NONE',  ( 0.0000000000000000000, 0.2660000000000000100, 0.0000000000000000000 ) ) ;
#73 = DIRECTION ( 'NONE',  ( 0.0000000000000000000, 1.000000000000000000, 0.0000000000000000000 ) ) ;
#74 = DIRECTION ( 'NONE',  ( 0.0000000000000000000, 0.0000000000000000000, 1.000000000000000000 ) ) ;
#75 = ORIENTED_EDGE ( 'NONE', *, *, #287, .T. ) ;
#76 = SURFACE_STYLE_FILL_AREA ( #125 ) ;
#77 = EDGE_LOOP ( 'NONE', ( #10, #178 ) ) ;
#78 = ADVANCED_FACE ( 'NONE', ( #316 ), #105, .T. ) ;
#79 = DIRECTION ( 'NONE',  ( 0.0000000000000000000, 1.000000000000000000, 0.0000000000000000000 ) ) ;
#80 = ADVANCED_FACE ( 'NONE', ( #42 ), #97, .T. ) ;
#81 = ORIENTED_EDGE ( 'NONE', *, *, #271, .F. ) ;
#82 = VERTEX_POINT ( 'NONE', #324 ) ;
#83 =( LENGTH_UNIT ( ) NAMED_UNIT ( * ) SI_UNIT ( $, .METRE. ) );
#84 = CYLINDRICAL_SURFACE ( 'NONE', #209, 0.1574803149606299200 ) ;
#85 = APPLICATION_CONTEXT ( 'automotive_design' ) ;
#86 = VECTOR ( 'NONE', #99, 39.37007874015748100 ) ;
#87 = APPLICATION_CONTEXT ( 'automotive_design' ) ;
#88 = CARTESIAN_POINT ( 'NONE',  ( 0.0000000000000000000, 0.009999999999999995000, 0.0000000000000000000 ) ) ;
#89 = CIRCLE ( 'NONE', #198, 0.1574803149606299200 ) ;
#90 = DIRECTION ( 'NONE',  ( 0.0000000000000000000, 1.000000000000000000, 0.0000000000000000000 ) ) ;
#91 = ORIENTED_EDGE ( 'NONE', *, *, #307, .T. ) ;
#92 = DIRECTION ( 'NONE',  ( -0.0000000000000000000, -1.000000000000000000, -0.0000000000000000000 ) ) ;
#93 = LINE ( 'NONE', #189, #37 ) ;
#94 = LINE ( 'NONE', #326, #31 ) ;
#95 = DIRECTION ( 'NONE',  ( 0.0000000000000000000, 1.000000000000000000, 0.0000000000000000000 ) ) ;
#96 = DIRECTION ( 'NONE',  ( 0.0000000000000000000, 1.000000000000000000, 0.0000000000000000000 ) ) ;
#97 = TOROIDAL_SURFACE ( 'NONE', #255, 0.4330000000000000500, 0.01000000000000000000 ) ;
#98 = DIRECTION ( 'NONE',  ( 0.0000000000000000000, 1.000000000000000000, 0.0000000000000000000 ) ) ;
#99 = DIRECTION ( 'NONE',  ( -0.0000000000000000000, -1.000000000000000000, -0.0000000000000000000 ) ) ;
#100 = CARTESIAN_POINT ( 'NONE',  ( 0.0000000000000000000, 0.0000000000000000000, 0.0000000000000000000 ) ) ;
#101 = EDGE_LOOP ( 'NONE', ( #53, #70 ) ) ;
#102 = ORIENTED_EDGE ( 'NONE', *, *, #301, .T. ) ;
#103 = DIRECTION ( 'NONE',  ( -0.0000000000000000000, -1.000000000000000000, -0.0000000000000000000 ) ) ;
#104 = DIRECTION ( 'NONE',  ( 0.0000000000000000000, 0.0000000000000000000, 1.000000000000000000 ) ) ;
#105 = TOROIDAL_SURFACE ( 'NONE', #260, 0.4330000000000000500, 0.01000000000000000000 ) ;
#106 = CARTESIAN_POINT ( 'NONE',  ( 0.0000000000000000000, 0.2760000000000000200, 0.0000000000000000000 ) ) ;
#107 = ORIENTED_EDGE ( 'NONE', *, *, #278, .T. ) ;
#108 = AXIS2_PLACEMENT_3D ( 'NONE', #32, #98, #284 ) ;
#109 = CARTESIAN_POINT ( 'NONE',  ( 5.302720640308040000E-017, 0.2660000000000000100, -0.4330000000000000500 ) ) ;
#110 = ORIENTED_EDGE ( 'NONE', *, *, #291, .T. ) ;
#111 =( NAMED_UNIT ( * ) PLANE_ANGLE_UNIT ( ) SI_UNIT ( $, .RADIAN. ) );
#112 = CARTESIAN_POINT ( 'NONE',  ( 0.0000000000000000000, 0.2760000000000000200, -0.4430000000000001200 ) ) ;
#113 = FILL_AREA_STYLE ('',( #266 ) ) ;
#114 = CIRCLE ( 'NONE', #235, 0.4330000000000000500 ) ;
#115 = DIRECTION ( 'NONE',  ( 0.0000000000000000000, 0.0000000000000000000, 1.000000000000000000 ) ) ;
#116 = CYLINDRICAL_SURFACE ( 'NONE', #238, 0.4430000000000001200 ) ;
#117 = CARTESIAN_POINT ( 'NONE',  ( 0.0000000000000000000, 0.2760000000000000200, 0.0000000000000000000 ) ) ;
#118 = ORIENTED_EDGE ( 'NONE', *, *, #304, .T. ) ;
#119 =( GEOMETRIC_REPRESENTATION_CONTEXT ( 3 ) GLOBAL_UNCERTAINTY_ASSIGNED_CONTEXT ( ( #280 ) ) GLOBAL_UNIT_ASSIGNED_CONTEXT ( ( #22, #174, #49 ) ) REPRESENTATION_CONTEXT ( 'NONE', 'WORKASPACE' ) );
#120 = CARTESIAN_POINT ( 'NONE',  ( 0.0000000000000000000, 0.2660000000000000100, 0.4330000000000000500 ) ) ;
#121 = SURFACE_SIDE_STYLE ('',( #76 ) ) ;
#122 = DIRECTION ( 'NONE',  ( -0.0000000000000000000, -1.000000000000000000, -0.0000000000000000000 ) ) ;
#123 = VERTEX_POINT ( 'NONE', #164 ) ;
#124 = ORIENTED_EDGE ( 'NONE', *, *, #276, .T. ) ;
#125 = FILL_AREA_STYLE ('',( #38 ) ) ;
#126 = CARTESIAN_POINT ( 'NONE',  ( 0.0000000000000000000, 0.2660000000000000100, 0.0000000000000000000 ) ) ;
#127 = DIRECTION ( 'NONE',  ( 0.0000000000000000000, 0.0000000000000000000, 1.000000000000000000 ) ) ;
#128 = DIRECTION ( 'NONE',  ( 1.224646799147346800E-016, 0.0000000000000000000, -1.000000000000000000 ) ) ;
#129 = ORIENTED_EDGE ( 'NONE', *, *, #261, .T. ) ;
#130 = ORIENTED_EDGE ( 'NONE', *, *, #299, .F. ) ;
#131 = AXIS2_PLACEMENT_3D ( 'NONE', #210, #73, #244 ) ;
#132 = SURFACE_STYLE_USAGE ( .BOTH. , #309 ) ;
#133 = VERTEX_POINT ( 'NONE', #207 ) ;
#134 = CARTESIAN_POINT ( 'NONE',  ( 0.0000000000000000000, 0.2660000000000000100, 0.0000000000000000000 ) ) ;
#135 = DIRECTION ( 'NONE',  ( 0.0000000000000000000, 0.0000000000000000000, 1.000000000000000000 ) ) ;
#136 = ORIENTED_EDGE ( 'NONE', *, *, #293, .T. ) ;
#137 = DIRECTION ( 'NONE',  ( 0.0000000000000000000, 0.0000000000000000000, 1.000000000000000000 ) ) ;
#138 = CARTESIAN_POINT ( 'NONE',  ( 0.0000000000000000000, 0.0000000000000000000, 0.0000000000000000000 ) ) ;
#139 = CARTESIAN_POINT ( 'NONE',  ( 0.0000000000000000000, 0.009999999999999995000, 0.0000000000000000000 ) ) ;
#140 = CIRCLE ( 'NONE', #196, 0.4330000000000000500 ) ;
#141 = ORIENTED_EDGE ( 'NONE', *, *, #306, .F. ) ;
#142 = ORIENTED_EDGE ( 'NONE', *, *, #267, .T. ) ;
#143 =( LENGTH_UNIT ( ) NAMED_UNIT ( * ) SI_UNIT ( $, .METRE. ) );
#144 = CIRCLE ( 'NONE', #214, 0.4330000000000000500 ) ;
#145 = ADVANCED_FACE ( 'NONE', ( #154, #181 ), #184, .T. ) ;
#146 = CARTESIAN_POINT ( 'NONE',  ( 5.363952980265407500E-017, 0.2760000000000000200, -0.4330000000000000500 ) ) ;
#147 = VECTOR ( 'NONE', #65, 39.37007874015748100 ) ;
#148 = CYLINDRICAL_SURFACE ( 'NONE', #201, 0.1574803149606299200 ) ;
#149 = ORIENTED_EDGE ( 'NONE', *, *, #283, .T. ) ;
#150 = FACE_OUTER_BOUND ( 'NONE', #321, .T. ) ;
#151 = CARTESIAN_POINT ( 'NONE',  ( 0.0000000000000000000, 0.0000000000000000000, 0.0000000000000000000 ) ) ;
#152 = CIRCLE ( 'NONE', #221, 0.1574803149606299200 ) ;
#153 =( CONVERSION_BASED_UNIT ( 'INCH', #186 ) LENGTH_UNIT ( ) NAMED_UNIT ( #71 ) );
#154 = FACE_OUTER_BOUND ( 'NONE', #101, .T. ) ;
#155 = EDGE_LOOP ( 'NONE', ( #320, #1, #129, #11 ) ) ;
#156 = EDGE_LOOP ( 'NONE', ( #81, #52, #203, #36 ) ) ;
#157 = DIRECTION ( 'NONE',  ( 0.0000000000000000000, 0.0000000000000000000, 1.000000000000000000 ) ) ;
#158 = MANIFOLD_SOLID_BREP ( 'Fillet1', #69 ) ;
#159 = DIRECTION ( 'NONE',  ( 0.0000000000000000000, 1.000000000000000000, 0.0000000000000000000 ) ) ;
#160 = FACE_OUTER_BOUND ( 'NONE', #202, .T. ) ;
#161 = DIRECTION ( 'NONE',  ( 0.0000000000000000000, 0.0000000000000000000, 1.000000000000000000 ) ) ;
#162 = SHAPE_DEFINITION_REPRESENTATION ( #213, #194 ) ;
#163 = EDGE_LOOP ( 'NONE', ( #17, #59, #311, #192 ) ) ;
#164 = CARTESIAN_POINT ( 'NONE',  ( 1.928577636452524600E-017, 0.2760000000000000200, 0.1574803149606299200 ) ) ;
#165 = ADVANCED_FACE ( 'NONE', ( #18 ), #116, .T. ) ;
#166 = ADVANCED_FACE ( 'NONE', ( #5 ), #272, .T. ) ;
#167 = DIRECTION ( 'NONE',  ( 0.0000000000000000000, 0.0000000000000000000, -1.000000000000000000 ) ) ;
#168 = CIRCLE ( 'NONE', #229, 0.01000000000000003000 ) ;
#169 = CARTESIAN_POINT ( 'NONE',  ( 0.0000000000000000000, 0.2760000000000000200, 0.4330000000000000500 ) ) ;
#170 = DIRECTION ( 'NONE',  ( -0.0000000000000000000, -1.000000000000000000, -0.0000000000000000000 ) ) ;
#171 = CIRCLE ( 'NONE', #222, 0.01000000000000003000 ) ;
#172 = VERTEX_POINT ( 'NONE', #60 ) ;
#173 = DIRECTION ( 'NONE',  ( 0.0000000000000000000, 0.0000000000000000000, 1.000000000000000000 ) ) ;
#174 =( NAMED_UNIT ( * ) PLANE_ANGLE_UNIT ( ) SI_UNIT ( $, .RADIAN. ) );
#175 = DIRECTION ( 'NONE',  ( 0.0000000000000000000, 0.0000000000000000000, -1.000000000000000000 ) ) ;
#176 =( NAMED_UNIT ( * ) SI_UNIT ( $, .STERADIAN. ) SOLID_ANGLE_UNIT ( ) );
#177 = CARTESIAN_POINT ( 'NONE',  ( 5.302720640308040000E-017, 0.009999999999999995000, -0.4330000000000000500 ) ) ;
#178 = ORIENTED_EDGE ( 'NONE', *, *, #271, .T. ) ;
#179 = ORIENTED_EDGE ( 'NONE', *, *, #279, .T. ) ;
#180 = CARTESIAN_POINT ( 'NONE',  ( 0.0000000000000000000, 0.009999999999999995000, 0.0000000000000000000 ) ) ;
#181 = FACE_BOUND ( 'NONE', #63, .T. ) ;
#182 = PRESENTATION_STYLE_ASSIGNMENT (( #228 ) ) ;
#183 = ORIENTED_EDGE ( 'NONE', *, *, #299, .T. ) ;
#184 = PLANE ( 'NONE',  #250 ) ;
#185 = DIRECTION ( 'NONE',  ( -1.000000000000000000, 0.0000000000000000000, 0.0000000000000000000 ) ) ;
#186 = LENGTH_MEASURE_WITH_UNIT ( LENGTH_MEASURE( 0.02539999999999999900 ), #3 );
#187 = PRODUCT_RELATED_PRODUCT_CATEGORY ( 'part', '', ( #67 ) ) ;
#188 = PRODUCT_DEFINITION_FORMATION_WITH_SPECIFIED_SOURCE ( 'ANY', '', #67, .NOT_KNOWN. ) ;
#189 = CARTESIAN_POINT ( 'NONE',  ( 1.928577636452524600E-017, 0.2760000000000000200, 0.1574803149606299200 ) ) ;
#190 = VERTEX_POINT ( 'NONE', #246 ) ;
#191 = PRODUCT_DEFINITION ( 'UNKNOWN', '', #188, #270 ) ;
#192 = ORIENTED_EDGE ( 'NONE', *, *, #261, .F. ) ;
#193 = AXIS2_PLACEMENT_3D ( 'NONE', #100, #195, #68 ) ;
#194 = ADVANCED_BREP_SHAPE_REPRESENTATION ( 'am-2094 8mm id, shielded ball bearing (608ZZ)', ( #158, #193 ), #119 ) ;
#195 = DIRECTION ( 'NONE',  ( 0.0000000000000000000, 0.0000000000000000000, 1.000000000000000000 ) ) ;
#196 = AXIS2_PLACEMENT_3D ( 'NONE', #138, #9, #161 ) ;
#197 = DIRECTION ( 'NONE',  ( 1.224646799147346800E-016, 0.0000000000000000000, -1.000000000000000000 ) ) ;
#198 = AXIS2_PLACEMENT_3D ( 'NONE', #241, #95, #281 ) ;
#199 = CARTESIAN_POINT ( 'NONE',  ( 0.0000000000000000000, 0.009999999999999995000, -0.4430000000000001200 ) ) ;
#200 = CIRCLE ( 'NONE', #131, 0.1574803149606299200 ) ;
#201 = AXIS2_PLACEMENT_3D ( 'NONE', #274, #92, #7 ) ;
#202 = EDGE_LOOP ( 'NONE', ( #263, #102, #110, #183 ) ) ;
#203 = ORIENTED_EDGE ( 'NONE', *, *, #276, .F. ) ;
#204 = AXIS2_PLACEMENT_3D ( 'NONE', #180, #57, #212 ) ;
#205 = APPLICATION_PROTOCOL_DEFINITION ( 'draft international standard', 'automotive_design', 1998, #87 ) ;
#206 = SURFACE_STYLE_FILL_AREA ( #113 ) ;
#207 = CARTESIAN_POINT ( 'NONE',  ( 5.425185320222775600E-017, 0.2660000000000000100, 0.4430000000000001200 ) ) ;
#208 = LINE ( 'NONE', #48, #147 ) ;
#209 = AXIS2_PLACEMENT_3D ( 'NONE', #294, #252, #322 ) ;
#210 = CARTESIAN_POINT ( 'NONE',  ( 0.0000000000000000000, 0.0000000000000000000, 0.0000000000000000000 ) ) ;
#211 = DIRECTION ( 'NONE',  ( 0.0000000000000000000, 1.000000000000000000, 0.0000000000000000000 ) ) ;
#212 = DIRECTION ( 'NONE',  ( 0.0000000000000000000, 0.0000000000000000000, 1.000000000000000000 ) ) ;
#213 = PRODUCT_DEFINITION_SHAPE ( 'NONE', 'NONE',  #191 ) ;
#214 = AXIS2_PLACEMENT_3D ( 'NONE', #117, #313, #135 ) ;
#215 = EDGE_LOOP ( 'NONE', ( #142, #305, #124, #312 ) ) ;
#216 = AXIS2_PLACEMENT_3D ( 'NONE', #286, #122, #319 ) ;
#217 = AXIS2_PLACEMENT_3D ( 'NONE', #151, #20, #173 ) ;
#218 = CARTESIAN_POINT ( 'NONE',  ( 0.0000000000000000000, 0.2760000000000000200, 0.0000000000000000000 ) ) ;
#219 = DIRECTION ( 'NONE',  ( -0.0000000000000000000, -1.000000000000000000, -0.0000000000000000000 ) ) ;
#220 = CYLINDRICAL_SURFACE ( 'NONE', #258, 0.4430000000000001200 ) ;
#221 = AXIS2_PLACEMENT_3D ( 'NONE', #106, #298, #127 ) ;
#222 = AXIS2_PLACEMENT_3D ( 'NONE', #41, #185, #62 ) ;
#223 = ORIENTED_EDGE ( 'NONE', *, *, #287, .F. ) ;
#224 = AXIS2_PLACEMENT_3D ( 'NONE', #88, #268, #115 ) ;
#225 = ORIENTED_EDGE ( 'NONE', *, *, #279, .F. ) ;
#226 = AXIS2_PLACEMENT_3D ( 'NONE', #177, #51, #197 ) ;
#227 = AXIS2_PLACEMENT_3D ( 'NONE', #16, #170, #44 ) ;
#228 = SURFACE_STYLE_USAGE ( .BOTH. , #121 ) ;
#229 = AXIS2_PLACEMENT_3D ( 'NONE', #109, #303, #128 ) ;
#230 = DIRECTION ( 'NONE',  ( -0.0000000000000000000, -1.000000000000000000, -0.0000000000000000000 ) ) ;
#231 = PRODUCT_CONTEXT ( 'NONE', #85, 'mechanical' ) ;
#232 = LINE ( 'NONE', #112, #86 ) ;
#233 = AXIS2_PLACEMENT_3D ( 'NONE', #134, #6, #157 ) ;
#234 = CARTESIAN_POINT ( 'NONE',  ( 5.363952980265407500E-017, 0.0000000000000000000, -0.4330000000000000500 ) ) ;
#235 = AXIS2_PLACEMENT_3D ( 'NONE', #237, #90, #273 ) ;
#236 = AXIS2_PLACEMENT_3D ( 'NONE', #139, #285, #104 ) ;
#237 = CARTESIAN_POINT ( 'NONE',  ( 0.0000000000000000000, 0.2760000000000000200, 0.0000000000000000000 ) ) ;
#238 = AXIS2_PLACEMENT_3D ( 'NONE', #2, #23, #175 ) ;
#239 = ORIENTED_EDGE ( 'NONE', *, *, #304, .F. ) ;
#240 = AXIS2_PLACEMENT_3D ( 'NONE', #120, #314, #137 ) ;
#241 = CARTESIAN_POINT ( 'NONE',  ( 0.0000000000000000000, 0.2760000000000000200, 0.0000000000000000000 ) ) ;
#242 = CIRCLE ( 'NONE', #233, 0.4430000000000001200 ) ;
#243 = AXIS2_PLACEMENT_3D ( 'NONE', #56, #211, #74 ) ;
#244 = DIRECTION ( 'NONE',  ( 0.0000000000000000000, 0.0000000000000000000, 1.000000000000000000 ) ) ;
#245 =( GEOMETRIC_REPRESENTATION_CONTEXT ( 3 ) GLOBAL_UNCERTAINTY_ASSIGNED_CONTEXT ( ( #21 ) ) GLOBAL_UNIT_ASSIGNED_CONTEXT ( ( #264, #111, #308 ) ) REPRESENTATION_CONTEXT ( 'NONE', 'WORKASPACE' ) );
#246 = CARTESIAN_POINT ( 'NONE',  ( 0.0000000000000000000, 0.2760000000000000200, -0.1574803149606299200 ) ) ;
#247 = MECHANICAL_DESIGN_GEOMETRIC_PRESENTATION_REPRESENTATION (  '', ( #253 ), #245 ) ;
#248 = TOROIDAL_SURFACE ( 'NONE', #236, 0.4330000000000000500, 0.01000000000000000000 ) ;
#249 = PRESENTATION_LAYER_ASSIGNMENT (  '', '', ( #253 ) ) ;
#250 = AXIS2_PLACEMENT_3D ( 'NONE', #218, #79, #254 ) ;
#251 = VERTEX_POINT ( 'NONE', #317 ) ;
#252 = DIRECTION ( 'NONE',  ( -0.0000000000000000000, -1.000000000000000000, -0.0000000000000000000 ) ) ;
#253 = STYLED_ITEM ( 'NONE', ( #182 ), #158 ) ;
#254 = DIRECTION ( 'NONE',  ( 0.0000000000000000000, -0.0000000000000000000, 1.000000000000000000 ) ) ;
#255 = AXIS2_PLACEMENT_3D ( 'NONE', #72, #96, #282 ) ;
#256 = ADVANCED_FACE ( 'NONE', ( #327 ), #248, .T. ) ;
#257 = CARTESIAN_POINT ( 'NONE',  ( 0.0000000000000000000, 0.2760000000000000200, 0.0000000000000000000 ) ) ;
#258 = AXIS2_PLACEMENT_3D ( 'NONE', #257, #219, #167 ) ;
#259 = EDGE_LOOP ( 'NONE', ( #149, #91 ) ) ;
#260 = AXIS2_PLACEMENT_3D ( 'NONE', #126, #159, #54 ) ;
#261 = EDGE_CURVE ( 'NONE', #133, #19, #4, .T. ) ;
#262 = EDGE_LOOP ( 'NONE', ( #29, #141, #107, #130 ) ) ;
#263 = ORIENTED_EDGE ( 'NONE', *, *, #289, .F. ) ;
#264 =( CONVERSION_BASED_UNIT ( 'INCH', #277 ) LENGTH_UNIT ( ) NAMED_UNIT ( #39 ) );
#265 = EDGE_CURVE ( 'NONE', #19, #45, #114, .T. ) ;
#266 = FILL_AREA_STYLE_COLOUR ( '', #33 ) ;
#267 = EDGE_CURVE ( 'NONE', #82, #133, #242, .T. ) ;
#268 = DIRECTION ( 'NONE',  ( 0.0000000000000000000, 1.000000000000000000, 0.0000000000000000000 ) ) ;
#269 = EDGE_CURVE ( 'NONE', #82, #45, #168, .T. ) ;
#270 = PRODUCT_DEFINITION_CONTEXT ( 'detailed design', #87, 'design' ) ;
#271 = EDGE_CURVE ( 'NONE', #292, #251, #55, .T. ) ;
#272 = TOROIDAL_SURFACE ( 'NONE', #243, 0.4330000000000000500, 0.01000000000000000000 ) ;
#273 = DIRECTION ( 'NONE',  ( 0.0000000000000000000, 0.0000000000000000000, 1.000000000000000000 ) ) ;
#274 = CARTESIAN_POINT ( 'NONE',  ( 0.0000000000000000000, 0.2760000000000000200, 0.0000000000000000000 ) ) ;
#275 = EDGE_CURVE ( 'NONE', #292, #64, #325, .T. ) ;
#276 = EDGE_CURVE ( 'NONE', #318, #64, #58, .T. ) ;
#277 = LENGTH_MEASURE_WITH_UNIT ( LENGTH_MEASURE( 0.02539999999999999900 ), #83 );
#278 = EDGE_CURVE ( 'NONE', #251, #318, #171, .T. ) ;
#279 = EDGE_CURVE ( 'NONE', #190, #123, #152, .T. ) ;
#280 = UNCERTAINTY_MEASURE_WITH_UNIT (LENGTH_MEASURE( 1.000000000000000100E-005 ), #22, 'distance_accuracy_value', 'NONE');
#281 = DIRECTION ( 'NONE',  ( 0.0000000000000000000, 0.0000000000000000000, 1.000000000000000000 ) ) ;
#282 = DIRECTION ( 'NONE',  ( 0.0000000000000000000, 0.0000000000000000000, 1.000000000000000000 ) ) ;
#283 = EDGE_CURVE ( 'NONE', #172, #12, #40, .T. ) ;
#284 = DIRECTION ( 'NONE',  ( 0.0000000000000000000, -0.0000000000000000000, 1.000000000000000000 ) ) ;
#285 = DIRECTION ( 'NONE',  ( 0.0000000000000000000, 1.000000000000000000, 0.0000000000000000000 ) ) ;
#286 = CARTESIAN_POINT ( 'NONE',  ( 0.0000000000000000000, 0.2660000000000000100, 0.0000000000000000000 ) ) ;
#287 = EDGE_CURVE ( 'NONE', #190, #172, #208, .T. ) ;
#288 = LENGTH_MEASURE_WITH_UNIT ( LENGTH_MEASURE( 0.02539999999999999900 ), #143 );
#289 = EDGE_CURVE ( 'NONE', #133, #318, #94, .T. ) ;
#290 = EDGE_LOOP ( 'NONE', ( #179, #136, #28, #223 ) ) ;
#291 = EDGE_CURVE ( 'NONE', #82, #64, #232, .T. ) ;
#292 = VERTEX_POINT ( 'NONE', #234 ) ;
#293 = EDGE_CURVE ( 'NONE', #123, #12, #93, .T. ) ;
#294 = CARTESIAN_POINT ( 'NONE',  ( 0.0000000000000000000, 0.2760000000000000200, 0.0000000000000000000 ) ) ;
#295 = ADVANCED_FACE ( 'NONE', ( #310 ), #84, .F. ) ;
#296 = EDGE_CURVE ( 'NONE', #45, #19, #144, .T. ) ;
#297 = ADVANCED_FACE ( 'NONE', ( #150 ), #148, .F. ) ;
#298 = DIRECTION ( 'NONE',  ( 0.0000000000000000000, 1.000000000000000000, 0.0000000000000000000 ) ) ;
#299 = EDGE_CURVE ( 'NONE', #64, #318, #30, .T. ) ;
#300 = PRESENTATION_STYLE_ASSIGNMENT (( #132 ) ) ;
#301 = EDGE_CURVE ( 'NONE', #133, #82, #35, .T. ) ;
#302 = FACE_BOUND ( 'NONE', #259, .T. ) ;
#303 = DIRECTION ( 'NONE',  ( 1.000000000000000000, -0.0000000000000000000, 1.224646799147353200E-016 ) ) ;
#304 = EDGE_CURVE ( 'NONE', #123, #190, #89, .T. ) ;
#305 = ORIENTED_EDGE ( 'NONE', *, *, #289, .T. ) ;
#306 = EDGE_CURVE ( 'NONE', #251, #292, #140, .T. ) ;
#307 = EDGE_CURVE ( 'NONE', #12, #172, #200, .T. ) ;
#308 =( NAMED_UNIT ( * ) SI_UNIT ( $, .STERADIAN. ) SOLID_ANGLE_UNIT ( ) );
#309 = SURFACE_SIDE_STYLE ('',( #206 ) ) ;
#310 = FACE_OUTER_BOUND ( 'NONE', #290, .T. ) ;
#311 = ORIENTED_EDGE ( 'NONE', *, *, #265, .F. ) ;
#312 = ORIENTED_EDGE ( 'NONE', *, *, #291, .F. ) ;
#313 = DIRECTION ( 'NONE',  ( 0.0000000000000000000, 1.000000000000000000, 0.0000000000000000000 ) ) ;
#314 = DIRECTION ( 'NONE',  ( -1.000000000000000000, 0.0000000000000000000, 0.0000000000000000000 ) ) ;
#315 = CARTESIAN_POINT ( 'NONE',  ( 5.425185320222775600E-017, 0.009999999999999995000, 0.4430000000000001200 ) ) ;
#316 = FACE_OUTER_BOUND ( 'NONE', #163, .T. ) ;
#317 = CARTESIAN_POINT ( 'NONE',  ( 0.0000000000000000000, 0.0000000000000000000, 0.4330000000000000500 ) ) ;
#318 = VERTEX_POINT ( 'NONE', #315 ) ;
#319 = DIRECTION ( 'NONE',  ( 0.0000000000000000000, 0.0000000000000000000, 1.000000000000000000 ) ) ;
#320 = ORIENTED_EDGE ( 'NONE', *, *, #269, .F. ) ;
#321 = EDGE_LOOP ( 'NONE', ( #8, #118, #75, #43 ) ) ;
#322 = DIRECTION ( 'NONE',  ( 0.0000000000000000000, 0.0000000000000000000, -1.000000000000000000 ) ) ;
#323 = ADVANCED_FACE ( 'NONE', ( #25, #302 ), #34, .F. ) ;
#324 = CARTESIAN_POINT ( 'NONE',  ( 0.0000000000000000000, 0.2660000000000000100, -0.4430000000000001200 ) ) ;
#325 = CIRCLE ( 'NONE', #226, 0.01000000000000003000 ) ;
#326 = CARTESIAN_POINT ( 'NONE',  ( 5.425185320222775600E-017, 0.2760000000000000200, 0.4430000000000001200 ) ) ;
#327 = FACE_OUTER_BOUND ( 'NONE', #262, .T. ) ;
ENDSEC;
END-ISO-10303-21;
