ISO-10303-21;
HEADER;
FILE_DESCRIPTION (( 'STEP AP214' ),
    '1' );
FILE_NAME ('am-1306 0.28'''' long, 0.518'''' od, 0.382'''' id, Spacer.STEP',
    '2014-08-21T20:13:44',
    ( '' ),
    ( '' ),
    'SwSTEP 2.0',
    'SolidWorks 2014',
    '' );
FILE_SCHEMA (( 'AUTOMOTIVE_DESIGN' ));
ENDSEC;

DATA;
#1 = ORIENTED_EDGE ( 'NONE', *, *, #155, .T. ) ;
#2 = ORIENTED_EDGE ( 'NONE', *, *, #150, .T. ) ;
#3 = FACE_OUTER_BOUND ( 'NONE', #65, .T. ) ;
#4 = PRODUCT_CONTEXT ( 'NONE', #46, 'mechanical' ) ;
#5 = EDGE_CURVE ( 'NONE', #81, #32, #58, .T. ) ;
#6 = ADVANCED_FACE ( 'NONE', ( #141 ), #51, .F. ) ;
#7 = DIRECTION ( 'NONE',  ( 0.0000000000000000000, 0.0000000000000000000, 1.000000000000000000 ) ) ;
#8 = CARTESIAN_POINT ( 'NONE',  ( 0.0000000000000000000, 0.2800000000000000300, 0.0000000000000000000 ) ) ;
#9 = CARTESIAN_POINT ( 'NONE',  ( 0.0000000000000000000, 0.2800000000000000300, -0.2590000000000000100 ) ) ;
#10 = SURFACE_STYLE_USAGE ( .BOTH. , #42 ) ;
#11 = DIRECTION ( 'NONE',  ( -0.0000000000000000000, -1.000000000000000000, -0.0000000000000000000 ) ) ;
#12 = CIRCLE ( 'NONE', #146, 0.1910000000000000000 ) ;
#13 = DIRECTION ( 'NONE',  ( 0.0000000000000000000, 0.0000000000000000000, 1.000000000000000000 ) ) ;
#14 = CARTESIAN_POINT ( 'NONE',  ( 0.0000000000000000000, 0.2800000000000000300, -0.1910000000000000000 ) ) ;
#15 =( NAMED_UNIT ( * ) PLANE_ANGLE_UNIT ( ) SI_UNIT ( $, .RADIAN. ) );
#16 = FACE_OUTER_BOUND ( 'NONE', #88, .T. ) ;
#17 = ORIENTED_EDGE ( 'NONE', *, *, #5, .F. ) ;
#18 = PRODUCT ( 'am-1306 0.28'''''''' long, 0.518'''''''' od, 0.382'''''''' id, Spacer', 'am-1306 0.28'''''''' long, 0.518'''''''' od, 0.382'''''''' id, Spacer', '', ( #4 ) ) ;
#19 = APPLICATION_PROTOCOL_DEFINITION ( 'draft international standard', 'automotive_design', 1998, #131 ) ;
#20 = DIMENSIONAL_EXPONENTS ( 1.000000000000000000, 0.0000000000000000000, 0.0000000000000000000, 0.0000000000000000000, 0.0000000000000000000, 0.0000000000000000000, 0.0000000000000000000 ) ;
#21 = ORIENTED_EDGE ( 'NONE', *, *, #82, .T. ) ;
#22 = ADVANCED_FACE ( 'NONE', ( #165 ), #201, .F. ) ;
#23 = DIRECTION ( 'NONE',  ( 0.0000000000000000000, 1.000000000000000000, 0.0000000000000000000 ) ) ;
#24 = DIRECTION ( 'NONE',  ( 0.0000000000000000000, 1.000000000000000000, 0.0000000000000000000 ) ) ;
#25 = CARTESIAN_POINT ( 'NONE',  ( 0.0000000000000000000, 0.2800000000000000300, 0.0000000000000000000 ) ) ;
#26 = LENGTH_MEASURE_WITH_UNIT ( LENGTH_MEASURE( 0.02539999999999999900 ), #59 );
#27 = ORIENTED_EDGE ( 'NONE', *, *, #54, .F. ) ;
#28 = FILL_AREA_STYLE_COLOUR ( '', #84 ) ;
#29 = LENGTH_MEASURE_WITH_UNIT ( LENGTH_MEASURE( 0.02539999999999999900 ), #87 );
#30 = APPLICATION_PROTOCOL_DEFINITION ( 'draft international standard', 'automotive_design', 1998, #46 ) ;
#31 = CIRCLE ( 'NONE', #113, 0.2590000000000000100 ) ;
#32 = VERTEX_POINT ( 'NONE', #56 ) ;
#33 = ORIENTED_EDGE ( 'NONE', *, *, #52, .T. ) ;
#34 = PRESENTATION_STYLE_ASSIGNMENT (( #10 ) ) ;
#35 = PRESENTATION_STYLE_ASSIGNMENT (( #202 ) ) ;
#36 = CIRCLE ( 'NONE', #126, 0.2590000000000000100 ) ;
#37 = EDGE_LOOP ( 'NONE', ( #170, #156, #210, #199 ) ) ;
#38 = CIRCLE ( 'NONE', #109, 0.1910000000000000000 ) ;
#39 = ORIENTED_EDGE ( 'NONE', *, *, #5, .T. ) ;
#40 = CARTESIAN_POINT ( 'NONE',  ( 0.0000000000000000000, 0.2800000000000000300, -0.2590000000000000100 ) ) ;
#41 = ORIENTED_EDGE ( 'NONE', *, *, #155, .F. ) ;
#42 = SURFACE_SIDE_STYLE ('',( #182 ) ) ;
#43 = FACE_BOUND ( 'NONE', #167, .T. ) ;
#44 = ORIENTED_EDGE ( 'NONE', *, *, #158, .T. ) ;
#45 = CARTESIAN_POINT ( 'NONE',  ( 0.0000000000000000000, 0.0000000000000000000, 0.0000000000000000000 ) ) ;
#46 = APPLICATION_CONTEXT ( 'automotive_design' ) ;
#47 = PRODUCT_RELATED_PRODUCT_CATEGORY ( 'part', '', ( #18 ) ) ;
#48 = PRODUCT_DEFINITION_FORMATION_WITH_SPECIFIED_SOURCE ( 'ANY', '', #18, .NOT_KNOWN. ) ;
#49 = DIMENSIONAL_EXPONENTS ( 1.000000000000000000, 0.0000000000000000000, 0.0000000000000000000, 0.0000000000000000000, 0.0000000000000000000, 0.0000000000000000000, 0.0000000000000000000 ) ;
#50 = PRODUCT_DEFINITION ( 'UNKNOWN', '', #48, #212 ) ;
#51 = CYLINDRICAL_SURFACE ( 'NONE', #140, 0.1910000000000000000 ) ;
#52 = EDGE_CURVE ( 'NONE', #62, #74, #12, .T. ) ;
#53 = CARTESIAN_POINT ( 'NONE',  ( 0.0000000000000000000, 0.0000000000000000000, 0.0000000000000000000 ) ) ;
#54 = EDGE_CURVE ( 'NONE', #83, #206, #108, .T. ) ;
#55 = DIRECTION ( 'NONE',  ( -0.0000000000000000000, -1.000000000000000000, -0.0000000000000000000 ) ) ;
#56 = CARTESIAN_POINT ( 'NONE',  ( 3.171835209791645200E-017, 0.2800000000000000300, 0.2590000000000000100 ) ) ;
#57 = DIRECTION ( 'NONE',  ( -0.0000000000000000000, -1.000000000000000000, -0.0000000000000000000 ) ) ;
#58 = CIRCLE ( 'NONE', #149, 0.2590000000000000100 ) ;
#59 =( LENGTH_UNIT ( ) NAMED_UNIT ( * ) SI_UNIT ( $, .METRE. ) );
#60 = CARTESIAN_POINT ( 'NONE',  ( 3.171835209791645200E-017, 0.2800000000000000300, 0.2590000000000000100 ) ) ;
#61 = CARTESIAN_POINT ( 'NONE',  ( 2.339075386371444400E-017, 0.2800000000000000300, 0.1910000000000000000 ) ) ;
#62 = VERTEX_POINT ( 'NONE', #77 ) ;
#63 = AXIS2_PLACEMENT_3D ( 'NONE', #45, #213, #112 ) ;
#64 =( CONVERSION_BASED_UNIT ( 'INCH', #205 ) LENGTH_UNIT ( ) NAMED_UNIT ( #49 ) );
#65 = EDGE_LOOP ( 'NONE', ( #194, #189 ) ) ;
#66 = SURFACE_SIDE_STYLE ('',( #86 ) ) ;
#67 =( GEOMETRIC_REPRESENTATION_CONTEXT ( 3 ) GLOBAL_UNCERTAINTY_ASSIGNED_CONTEXT ( ( #217 ) ) GLOBAL_UNIT_ASSIGNED_CONTEXT ( ( #211, #110, #203 ) ) REPRESENTATION_CONTEXT ( 'NONE', 'WORKASPACE' ) );
#68 = ADVANCED_BREP_SHAPE_REPRESENTATION ( 'am-1306 0.28'''''''' long, 0.518'''''''' od, 0.382'''''''' id, Spacer', ( #195, #63 ), #89 ) ;
#69 = MECHANICAL_DESIGN_GEOMETRIC_PRESENTATION_REPRESENTATION (  '', ( #72 ), #67 ) ;
#70 = ORIENTED_EDGE ( 'NONE', *, *, #152, .F. ) ;
#71 = PRESENTATION_LAYER_ASSIGNMENT (  '', '', ( #72 ) ) ;
#72 = STYLED_ITEM ( 'NONE', ( #35 ), #68 ) ;
#73 = DIRECTION ( 'NONE',  ( -0.0000000000000000000, -1.000000000000000000, -0.0000000000000000000 ) ) ;
#74 = VERTEX_POINT ( 'NONE', #216 ) ;
#75 = CARTESIAN_POINT ( 'NONE',  ( 3.171835209791645200E-017, 0.0000000000000000000, 0.2590000000000000100 ) ) ;
#76 = CARTESIAN_POINT ( 'NONE',  ( 0.0000000000000000000, 0.0000000000000000000, -0.2590000000000000100 ) ) ;
#77 = CARTESIAN_POINT ( 'NONE',  ( 2.339075386371444400E-017, 0.0000000000000000000, 0.1910000000000000000 ) ) ;
#78 = CARTESIAN_POINT ( 'NONE',  ( 0.0000000000000000000, 0.2800000000000000300, 0.0000000000000000000 ) ) ;
#79 = DIRECTION ( 'NONE',  ( 0.0000000000000000000, 0.0000000000000000000, -1.000000000000000000 ) ) ;
#80 = FACE_OUTER_BOUND ( 'NONE', #138, .T. ) ;
#81 = VERTEX_POINT ( 'NONE', #40 ) ;
#82 = EDGE_CURVE ( 'NONE', #123, #128, #204, .T. ) ;
#83 = VERTEX_POINT ( 'NONE', #174 ) ;
#84 = COLOUR_RGB ( '',1.000000000000000000, 1.000000000000000000, 1.000000000000000000 ) ;
#85 =( NAMED_UNIT ( * ) SI_UNIT ( $, .STERADIAN. ) SOLID_ANGLE_UNIT ( ) );
#86 = SURFACE_STYLE_FILL_AREA ( #183 ) ;
#87 =( LENGTH_UNIT ( ) NAMED_UNIT ( * ) SI_UNIT ( $, .METRE. ) );
#88 = EDGE_LOOP ( 'NONE', ( #39, #117 ) ) ;
#89 =( GEOMETRIC_REPRESENTATION_CONTEXT ( 3 ) GLOBAL_UNCERTAINTY_ASSIGNED_CONTEXT ( ( #129 ) ) GLOBAL_UNIT_ASSIGNED_CONTEXT ( ( #64, #200, #85 ) ) REPRESENTATION_CONTEXT ( 'NONE', 'WORKASPACE' ) );
#90 = VECTOR ( 'NONE', #55, 39.37007874015748100 ) ;
#91 =( GEOMETRIC_REPRESENTATION_CONTEXT ( 3 ) GLOBAL_UNCERTAINTY_ASSIGNED_CONTEXT ( ( #104 ) ) GLOBAL_UNIT_ASSIGNED_CONTEXT ( ( #125, #15, #153 ) ) REPRESENTATION_CONTEXT ( 'NONE', 'WORKASPACE' ) );
#92 = ADVANCED_FACE ( 'NONE', ( #16, #43 ), #175, .T. ) ;
#93 = ORIENTED_EDGE ( 'NONE', *, *, #157, .T. ) ;
#94 = MECHANICAL_DESIGN_GEOMETRIC_PRESENTATION_REPRESENTATION (  '', ( #107 ), #91 ) ;
#95 = FACE_BOUND ( 'NONE', #172, .T. ) ;
#96 = DIRECTION ( 'NONE',  ( -0.0000000000000000000, -1.000000000000000000, -0.0000000000000000000 ) ) ;
#97 = CARTESIAN_POINT ( 'NONE',  ( 0.0000000000000000000, 0.2800000000000000300, 0.0000000000000000000 ) ) ;
#98 = DIRECTION ( 'NONE',  ( 0.0000000000000000000, -0.0000000000000000000, 1.000000000000000000 ) ) ;
#99 = AXIS2_PLACEMENT_3D ( 'NONE', #8, #209, #222 ) ;
#100 = DIRECTION ( 'NONE',  ( 0.0000000000000000000, 0.0000000000000000000, 1.000000000000000000 ) ) ;
#101 = PLANE ( 'NONE',  #119 ) ;
#102 = DIRECTION ( 'NONE',  ( 0.0000000000000000000, 0.0000000000000000000, 1.000000000000000000 ) ) ;
#103 = AXIS2_PLACEMENT_3D ( 'NONE', #78, #207, #196 ) ;
#104 = UNCERTAINTY_MEASURE_WITH_UNIT (LENGTH_MEASURE( 1.000000000000000100E-005 ), #125, 'distance_accuracy_value', 'NONE');
#105 = CARTESIAN_POINT ( 'NONE',  ( 0.0000000000000000000, 0.0000000000000000000, 0.0000000000000000000 ) ) ;
#106 = PRESENTATION_LAYER_ASSIGNMENT (  '', '', ( #107 ) ) ;
#107 = STYLED_ITEM ( 'NONE', ( #34 ), #195 ) ;
#108 = CIRCLE ( 'NONE', #143, 0.1910000000000000000 ) ;
#109 = AXIS2_PLACEMENT_3D ( 'NONE', #176, #164, #102 ) ;
#110 =( NAMED_UNIT ( * ) PLANE_ANGLE_UNIT ( ) SI_UNIT ( $, .RADIAN. ) );
#111 = AXIS2_PLACEMENT_3D ( 'NONE', #197, #124, #220 ) ;
#112 = DIRECTION ( 'NONE',  ( 1.000000000000000000, 0.0000000000000000000, 0.0000000000000000000 ) ) ;
#113 = AXIS2_PLACEMENT_3D ( 'NONE', #144, #121, #100 ) ;
#114 = ADVANCED_FACE ( 'NONE', ( #3, #95 ), #101, .F. ) ;
#115 = ORIENTED_EDGE ( 'NONE', *, *, #158, .F. ) ;
#116 = DIRECTION ( 'NONE',  ( 0.0000000000000000000, 0.0000000000000000000, 1.000000000000000000 ) ) ;
#117 = ORIENTED_EDGE ( 'NONE', *, *, #154, .T. ) ;
#118 = DIRECTION ( 'NONE',  ( -0.0000000000000000000, -1.000000000000000000, -0.0000000000000000000 ) ) ;
#119 = AXIS2_PLACEMENT_3D ( 'NONE', #105, #166, #98 ) ;
#120 = DIRECTION ( 'NONE',  ( 0.0000000000000000000, -0.0000000000000000000, 1.000000000000000000 ) ) ;
#121 = DIRECTION ( 'NONE',  ( 0.0000000000000000000, 1.000000000000000000, 0.0000000000000000000 ) ) ;
#122 = DIRECTION ( 'NONE',  ( 0.0000000000000000000, 1.000000000000000000, 0.0000000000000000000 ) ) ;
#123 = VERTEX_POINT ( 'NONE', #76 ) ;
#124 = DIRECTION ( 'NONE',  ( 0.0000000000000000000, 1.000000000000000000, 0.0000000000000000000 ) ) ;
#125 =( CONVERSION_BASED_UNIT ( 'INCH', #26 ) LENGTH_UNIT ( ) NAMED_UNIT ( #133 ) );
#126 = AXIS2_PLACEMENT_3D ( 'NONE', #25, #24, #13 ) ;
#127 = AXIS2_PLACEMENT_3D ( 'NONE', #193, #122, #120 ) ;
#128 = VERTEX_POINT ( 'NONE', #75 ) ;
#129 = UNCERTAINTY_MEASURE_WITH_UNIT (LENGTH_MEASURE( 1.000000000000000100E-005 ), #64, 'distance_accuracy_value', 'NONE');
#130 = EDGE_LOOP ( 'NONE', ( #147, #1, #93, #115 ) ) ;
#131 = APPLICATION_CONTEXT ( 'automotive_design' ) ;
#132 = CYLINDRICAL_SURFACE ( 'NONE', #99, 0.2590000000000000100 ) ;
#133 = DIMENSIONAL_EXPONENTS ( 1.000000000000000000, 0.0000000000000000000, 0.0000000000000000000, 0.0000000000000000000, 0.0000000000000000000, 0.0000000000000000000, 0.0000000000000000000 ) ;
#134 = AXIS2_PLACEMENT_3D ( 'NONE', #163, #162, #161 ) ;
#135 = VECTOR ( 'NONE', #96, 39.37007874015748100 ) ;
#136 = AXIS2_PLACEMENT_3D ( 'NONE', #97, #57, #79 ) ;
#137 = CARTESIAN_POINT ( 'NONE',  ( 0.0000000000000000000, 0.2800000000000000300, -0.1910000000000000000 ) ) ;
#138 = EDGE_LOOP ( 'NONE', ( #41, #17, #44, #21 ) ) ;
#139 = CARTESIAN_POINT ( 'NONE',  ( 0.0000000000000000000, 0.2800000000000000300, 0.0000000000000000000 ) ) ;
#140 = AXIS2_PLACEMENT_3D ( 'NONE', #139, #118, #198 ) ;
#141 = FACE_OUTER_BOUND ( 'NONE', #37, .T. ) ;
#142 = FACE_OUTER_BOUND ( 'NONE', #130, .T. ) ;
#143 = AXIS2_PLACEMENT_3D ( 'NONE', #192, #178, #177 ) ;
#144 = CARTESIAN_POINT ( 'NONE',  ( 0.0000000000000000000, 0.0000000000000000000, 0.0000000000000000000 ) ) ;
#145 = COLOUR_RGB ( '',1.000000000000000000, 1.000000000000000000, 1.000000000000000000 ) ;
#146 = AXIS2_PLACEMENT_3D ( 'NONE', #53, #23, #7 ) ;
#147 = ORIENTED_EDGE ( 'NONE', *, *, #154, .F. ) ;
#148 = FILL_AREA_STYLE_COLOUR ( '', #145 ) ;
#149 = AXIS2_PLACEMENT_3D ( 'NONE', #159, #191, #116 ) ;
#150 = EDGE_CURVE ( 'NONE', #206, #74, #190, .T. ) ;
#151 = LINE ( 'NONE', #61, #90 ) ;
#152 = EDGE_CURVE ( 'NONE', #83, #62, #151, .T. ) ;
#153 =( NAMED_UNIT ( * ) SI_UNIT ( $, .STERADIAN. ) SOLID_ANGLE_UNIT ( ) );
#154 = EDGE_CURVE ( 'NONE', #32, #81, #36, .T. ) ;
#155 = EDGE_CURVE ( 'NONE', #32, #128, #184, .T. ) ;
#156 = ORIENTED_EDGE ( 'NONE', *, *, #152, .T. ) ;
#157 = EDGE_CURVE ( 'NONE', #128, #123, #31, .T. ) ;
#158 = EDGE_CURVE ( 'NONE', #81, #123, #221, .T. ) ;
#159 = CARTESIAN_POINT ( 'NONE',  ( 0.0000000000000000000, 0.2800000000000000300, 0.0000000000000000000 ) ) ;
#160 = EDGE_CURVE ( 'NONE', #74, #62, #214, .T. ) ;
#161 = DIRECTION ( 'NONE',  ( 0.0000000000000000000, 0.0000000000000000000, 1.000000000000000000 ) ) ;
#162 = DIRECTION ( 'NONE',  ( 0.0000000000000000000, 1.000000000000000000, 0.0000000000000000000 ) ) ;
#163 = CARTESIAN_POINT ( 'NONE',  ( 0.0000000000000000000, 0.0000000000000000000, 0.0000000000000000000 ) ) ;
#164 = DIRECTION ( 'NONE',  ( 0.0000000000000000000, 1.000000000000000000, 0.0000000000000000000 ) ) ;
#165 = FACE_OUTER_BOUND ( 'NONE', #185, .T. ) ;
#166 = DIRECTION ( 'NONE',  ( 0.0000000000000000000, 1.000000000000000000, 0.0000000000000000000 ) ) ;
#167 = EDGE_LOOP ( 'NONE', ( #208, #27 ) ) ;
#168 = FILL_AREA_STYLE ('',( #28 ) ) ;
#169 = EDGE_CURVE ( 'NONE', #206, #83, #38, .T. ) ;
#170 = ORIENTED_EDGE ( 'NONE', *, *, #169, .T. ) ;
#171 = PRODUCT_DEFINITION_SHAPE ( 'NONE', 'NONE',  #50 ) ;
#172 = EDGE_LOOP ( 'NONE', ( #180, #33 ) ) ;
#173 = ADVANCED_FACE ( 'NONE', ( #80 ), #219, .T. ) ;
#174 = CARTESIAN_POINT ( 'NONE',  ( 2.339075386371444400E-017, 0.2800000000000000300, 0.1910000000000000000 ) ) ;
#175 = PLANE ( 'NONE',  #127 ) ;
#176 = CARTESIAN_POINT ( 'NONE',  ( 0.0000000000000000000, 0.2800000000000000300, 0.0000000000000000000 ) ) ;
#177 = DIRECTION ( 'NONE',  ( 0.0000000000000000000, 0.0000000000000000000, 1.000000000000000000 ) ) ;
#178 = DIRECTION ( 'NONE',  ( 0.0000000000000000000, 1.000000000000000000, 0.0000000000000000000 ) ) ;
#179 = VECTOR ( 'NONE', #11, 39.37007874015748100 ) ;
#180 = ORIENTED_EDGE ( 'NONE', *, *, #160, .T. ) ;
#181 =( LENGTH_UNIT ( ) NAMED_UNIT ( * ) SI_UNIT ( $, .METRE. ) );
#182 = SURFACE_STYLE_FILL_AREA ( #168 ) ;
#183 = FILL_AREA_STYLE ('',( #148 ) ) ;
#184 = LINE ( 'NONE', #60, #135 ) ;
#185 = EDGE_LOOP ( 'NONE', ( #70, #218, #2, #215 ) ) ;
#186 = CLOSED_SHELL ( 'NONE', ( #6, #188, #92, #114, #173, #22 ) ) ;
#187 = SHAPE_DEFINITION_REPRESENTATION ( #171, #68 ) ;
#188 = ADVANCED_FACE ( 'NONE', ( #142 ), #132, .T. ) ;
#189 = ORIENTED_EDGE ( 'NONE', *, *, #157, .F. ) ;
#190 = LINE ( 'NONE', #137, #223 ) ;
#191 = DIRECTION ( 'NONE',  ( 0.0000000000000000000, 1.000000000000000000, 0.0000000000000000000 ) ) ;
#192 = CARTESIAN_POINT ( 'NONE',  ( 0.0000000000000000000, 0.2800000000000000300, 0.0000000000000000000 ) ) ;
#193 = CARTESIAN_POINT ( 'NONE',  ( 0.0000000000000000000, 0.2800000000000000300, 0.0000000000000000000 ) ) ;
#194 = ORIENTED_EDGE ( 'NONE', *, *, #82, .F. ) ;
#195 = MANIFOLD_SOLID_BREP ( 'Boss-Extrude1', #186 ) ;
#196 = DIRECTION ( 'NONE',  ( 0.0000000000000000000, 0.0000000000000000000, -1.000000000000000000 ) ) ;
#197 = CARTESIAN_POINT ( 'NONE',  ( 0.0000000000000000000, 0.0000000000000000000, 0.0000000000000000000 ) ) ;
#198 = DIRECTION ( 'NONE',  ( 0.0000000000000000000, 0.0000000000000000000, -1.000000000000000000 ) ) ;
#199 = ORIENTED_EDGE ( 'NONE', *, *, #150, .F. ) ;
#200 =( NAMED_UNIT ( * ) PLANE_ANGLE_UNIT ( ) SI_UNIT ( $, .RADIAN. ) );
#201 = CYLINDRICAL_SURFACE ( 'NONE', #136, 0.1910000000000000000 ) ;
#202 = SURFACE_STYLE_USAGE ( .BOTH. , #66 ) ;
#203 =( NAMED_UNIT ( * ) SI_UNIT ( $, .STERADIAN. ) SOLID_ANGLE_UNIT ( ) );
#204 = CIRCLE ( 'NONE', #134, 0.2590000000000000100 ) ;
#205 = LENGTH_MEASURE_WITH_UNIT ( LENGTH_MEASURE( 0.02539999999999999900 ), #181 );
#206 = VERTEX_POINT ( 'NONE', #14 ) ;
#207 = DIRECTION ( 'NONE',  ( -0.0000000000000000000, -1.000000000000000000, -0.0000000000000000000 ) ) ;
#208 = ORIENTED_EDGE ( 'NONE', *, *, #169, .F. ) ;
#209 = DIRECTION ( 'NONE',  ( -0.0000000000000000000, -1.000000000000000000, -0.0000000000000000000 ) ) ;
#210 = ORIENTED_EDGE ( 'NONE', *, *, #160, .F. ) ;
#211 =( CONVERSION_BASED_UNIT ( 'INCH', #29 ) LENGTH_UNIT ( ) NAMED_UNIT ( #20 ) );
#212 = PRODUCT_DEFINITION_CONTEXT ( 'detailed design', #131, 'design' ) ;
#213 = DIRECTION ( 'NONE',  ( 0.0000000000000000000, 0.0000000000000000000, 1.000000000000000000 ) ) ;
#214 = CIRCLE ( 'NONE', #111, 0.1910000000000000000 ) ;
#215 = ORIENTED_EDGE ( 'NONE', *, *, #52, .F. ) ;
#216 = CARTESIAN_POINT ( 'NONE',  ( 0.0000000000000000000, 0.0000000000000000000, -0.1910000000000000000 ) ) ;
#217 = UNCERTAINTY_MEASURE_WITH_UNIT (LENGTH_MEASURE( 1.000000000000000100E-005 ), #211, 'distance_accuracy_value', 'NONE');
#218 = ORIENTED_EDGE ( 'NONE', *, *, #54, .T. ) ;
#219 = CYLINDRICAL_SURFACE ( 'NONE', #103, 0.2590000000000000100 ) ;
#220 = DIRECTION ( 'NONE',  ( 0.0000000000000000000, 0.0000000000000000000, 1.000000000000000000 ) ) ;
#221 = LINE ( 'NONE', #9, #179 ) ;
#222 = DIRECTION ( 'NONE',  ( 0.0000000000000000000, 0.0000000000000000000, -1.000000000000000000 ) ) ;
#223 = VECTOR ( 'NONE', #73, 39.37007874015748100 ) ;
ENDSEC;
END-ISO-10303-21;
