ISO-10303-21;
HEADER;
FILE_DESCRIPTION (( 'STEP AP214' ),
    '1' );
FILE_NAME ('am-1181 3-16'''' Thick Nylon Spacer.STEP',
    '2014-08-21T20:00:47',
    ( '' ),
    ( '' ),
    'SwSTEP 2.0',
    'SolidWorks 2014',
    '' );
FILE_SCHEMA (( 'AUTOMOTIVE_DESIGN' ));
ENDSEC;

DATA;
#1 = APPLICATION_PROTOCOL_DEFINITION ( 'draft international standard', 'automotive_design', 1998, #137 ) ;
#2 = PRODUCT_DEFINITION_SHAPE ( 'NONE', 'NONE',  #89 ) ;
#3 = CARTESIAN_POINT ( 'NONE',  ( -0.3750000000000000600, 4.592425496802575500E-017, 0.0000000000000000000 ) ) ;
#4 = DIMENSIONAL_EXPONENTS ( 1.000000000000000000, 0.0000000000000000000, 0.0000000000000000000, 0.0000000000000000000, 0.0000000000000000000, 0.0000000000000000000, 0.0000000000000000000 ) ;
#5 = DIRECTION ( 'NONE',  ( -0.0000000000000000000, -0.0000000000000000000, 1.000000000000000000 ) ) ;
#6 = ADVANCED_FACE ( 'NONE', ( #153 ), #142, .T. ) ;
#7 = EDGE_LOOP ( 'NONE', ( #111, #167, #220, #102 ) ) ;
#8 = ORIENTED_EDGE ( 'NONE', *, *, #221, .T. ) ;
#9 = CARTESIAN_POINT ( 'NONE',  ( -0.3750000000000000600, 4.592425496802575500E-017, 0.0000000000000000000 ) ) ;
#10 = SURFACE_SIDE_STYLE ('',( #55 ) ) ;
#11 = CARTESIAN_POINT ( 'NONE',  ( -0.3750000000000000600, 4.592425496802575500E-017, -0.1880000000000000300 ) ) ;
#12 = DIRECTION ( 'NONE',  ( 0.0000000000000000000, 0.0000000000000000000, -1.000000000000000000 ) ) ;
#13 = ORIENTED_EDGE ( 'NONE', *, *, #118, .T. ) ;
#14 = PRESENTATION_STYLE_ASSIGNMENT (( #79 ) ) ;
#15 = APPLICATION_CONTEXT ( 'automotive_design' ) ;
#16 = ADVANCED_FACE ( 'NONE', ( #193, #57 ), #192, .T. ) ;
#17 = CARTESIAN_POINT ( 'NONE',  ( 0.0000000000000000000, 0.0000000000000000000, -0.1880000000000000300 ) ) ;
#18 = ADVANCED_FACE ( 'NONE', ( #72 ), #41, .F. ) ;
#19 = PRODUCT_DEFINITION_CONTEXT ( 'detailed design', #15, 'design' ) ;
#20 = ORIENTED_EDGE ( 'NONE', *, *, #213, .F. ) ;
#21 = LINE ( 'NONE', #3, #92 ) ;
#22 = ORIENTED_EDGE ( 'NONE', *, *, #129, .F. ) ;
#23 = DIRECTION ( 'NONE',  ( -0.0000000000000000000, -0.0000000000000000000, 1.000000000000000000 ) ) ;
#24 = CARTESIAN_POINT ( 'NONE',  ( 0.0000000000000000000, 0.0000000000000000000, 0.0000000000000000000 ) ) ;
#25 = PLANE ( 'NONE',  #186 ) ;
#26 = CARTESIAN_POINT ( 'NONE',  ( 0.2500000000000000600, 0.0000000000000000000, -0.1880000000000000300 ) ) ;
#27 = ORIENTED_EDGE ( 'NONE', *, *, #221, .F. ) ;
#28 = DIRECTION ( 'NONE',  ( -0.0000000000000000000, -0.0000000000000000000, 1.000000000000000000 ) ) ;
#29 = VECTOR ( 'NONE', #194, 39.37007874015748100 ) ;
#30 = FILL_AREA_STYLE ('',( #53 ) ) ;
#31 = EDGE_LOOP ( 'NONE', ( #106, #84, #110, #60 ) ) ;
#32 = ADVANCED_FACE ( 'NONE', ( #223, #164 ), #25, .T. ) ;
#33 = ADVANCED_FACE ( 'NONE', ( #83 ), #119, .F. ) ;
#34 = MANIFOLD_SOLID_BREP ( 'Revolve1', #44 ) ;
#35 = DIRECTION ( 'NONE',  ( 1.000000000000000000, 0.0000000000000000000, 0.0000000000000000000 ) ) ;
#36 = VERTEX_POINT ( 'NONE', #26 ) ;
#37 = LENGTH_MEASURE_WITH_UNIT ( LENGTH_MEASURE( 0.02539999999999999900 ), #94 );
#38 = EDGE_LOOP ( 'NONE', ( #47, #180 ) ) ;
#39 = CIRCLE ( 'NONE', #169, 0.2500000000000002200 ) ;
#40 = DIRECTION ( 'NONE',  ( -1.000000000000000000, 0.0000000000000000000, -0.0000000000000000000 ) ) ;
#41 = CYLINDRICAL_SURFACE ( 'NONE', #188, 0.2500000000000001100 ) ;
#42 = DIRECTION ( 'NONE',  ( 1.000000000000000000, 0.0000000000000000000, 0.0000000000000000000 ) ) ;
#43 = CARTESIAN_POINT ( 'NONE',  ( 0.0000000000000000000, 0.0000000000000000000, -0.1880000000000000300 ) ) ;
#44 = CLOSED_SHELL ( 'NONE', ( #6, #33, #18, #32, #207, #16 ) ) ;
#45 = DIMENSIONAL_EXPONENTS ( 1.000000000000000000, 0.0000000000000000000, 0.0000000000000000000, 0.0000000000000000000, 0.0000000000000000000, 0.0000000000000000000, 0.0000000000000000000 ) ;
#46 = VERTEX_POINT ( 'NONE', #114 ) ;
#47 = ORIENTED_EDGE ( 'NONE', *, *, #100, .T. ) ;
#48 = VERTEX_POINT ( 'NONE', #11 ) ;
#49 = CARTESIAN_POINT ( 'NONE',  ( 0.0000000000000000000, 0.0000000000000000000, -0.1880000000000000300 ) ) ;
#50 = CARTESIAN_POINT ( 'NONE',  ( 0.2500000000000000600, 0.0000000000000000000, -0.1880000000000000300 ) ) ;
#51 =( NAMED_UNIT ( * ) PLANE_ANGLE_UNIT ( ) SI_UNIT ( $, .RADIAN. ) );
#52 = CARTESIAN_POINT ( 'NONE',  ( 0.2500000000000002200, 0.0000000000000000000, 3.791200677927629700E-032 ) ) ;
#53 = FILL_AREA_STYLE_COLOUR ( '', #80 ) ;
#54 =( NAMED_UNIT ( * ) PLANE_ANGLE_UNIT ( ) SI_UNIT ( $, .RADIAN. ) );
#55 = SURFACE_STYLE_FILL_AREA ( #30 ) ;
#56 = DIRECTION ( 'NONE',  ( -0.0000000000000000000, -0.0000000000000000000, 1.000000000000000000 ) ) ;
#57 = FACE_OUTER_BOUND ( 'NONE', #125, .T. ) ;
#58 = LENGTH_MEASURE_WITH_UNIT ( LENGTH_MEASURE( 0.02539999999999999900 ), #139 );
#59 = PRODUCT ( 'am-1181 3-16'''''''' Thick Nylon Spacer', 'am-1181 3-16'''''''' Thick Nylon Spacer', '', ( #103 ) ) ;
#60 = ORIENTED_EDGE ( 'NONE', *, *, #201, .F. ) ;
#61 = VERTEX_POINT ( 'NONE', #132 ) ;
#62 = VECTOR ( 'NONE', #176, 39.37007874015748100 ) ;
#63 = VERTEX_POINT ( 'NONE', #97 ) ;
#64 =( LENGTH_UNIT ( ) NAMED_UNIT ( * ) SI_UNIT ( $, .METRE. ) );
#65 = DIRECTION ( 'NONE',  ( 0.0000000000000000000, -0.0000000000000000000, 1.000000000000000000 ) ) ;
#66 = DIRECTION ( 'NONE',  ( -0.0000000000000000000, -0.0000000000000000000, 1.000000000000000000 ) ) ;
#67 = ORIENTED_EDGE ( 'NONE', *, *, #209, .F. ) ;
#68 = CARTESIAN_POINT ( 'NONE',  ( 0.0000000000000000000, 0.0000000000000000000, 0.0000000000000000000 ) ) ;
#69 = CIRCLE ( 'NONE', #161, 0.2500000000000000600 ) ;
#70 = DIRECTION ( 'NONE',  ( -0.0000000000000000000, -0.0000000000000000000, 1.000000000000000000 ) ) ;
#71 = CIRCLE ( 'NONE', #170, 0.3750000000000000600 ) ;
#72 = FACE_OUTER_BOUND ( 'NONE', #73, .T. ) ;
#73 = EDGE_LOOP ( 'NONE', ( #20, #214, #8, #208 ) ) ;
#74 = ORIENTED_EDGE ( 'NONE', *, *, #203, .F. ) ;
#75 = CARTESIAN_POINT ( 'NONE',  ( -0.2500000000000002200, 3.061616997868385500E-017, 7.582401355855259500E-032 ) ) ;
#76 = VECTOR ( 'NONE', #178, 39.37007874015748100 ) ;
#77 = SURFACE_SIDE_STYLE ('',( #205 ) ) ;
#78 = CARTESIAN_POINT ( 'NONE',  ( 0.0000000000000000000, 0.0000000000000000000, -0.1880000000000000300 ) ) ;
#79 = SURFACE_STYLE_USAGE ( .BOTH. , #10 ) ;
#80 = COLOUR_RGB ( '',0.7921568627450980000, 0.8196078431372548800, 0.9333333333333333500 ) ;
#81 = DIRECTION ( 'NONE',  ( 1.000000000000000000, 0.0000000000000000000, 0.0000000000000000000 ) ) ;
#82 = VERTEX_POINT ( 'NONE', #9 ) ;
#83 = FACE_OUTER_BOUND ( 'NONE', #143, .T. ) ;
#84 = ORIENTED_EDGE ( 'NONE', *, *, #206, .T. ) ;
#85 = DIRECTION ( 'NONE',  ( -0.0000000000000000000, -0.0000000000000000000, 1.000000000000000000 ) ) ;
#86 = CYLINDRICAL_SURFACE ( 'NONE', #160, 0.3750000000000000600 ) ;
#87 = PRODUCT_DEFINITION_FORMATION_WITH_SPECIFIED_SOURCE ( 'ANY', '', #59, .NOT_KNOWN. ) ;
#88 = CIRCLE ( 'NONE', #168, 0.3750000000000000600 ) ;
#89 = PRODUCT_DEFINITION ( 'UNKNOWN', '', #87, #19 ) ;
#90 = AXIS2_PLACEMENT_3D ( 'NONE', #135, #202, #81 ) ;
#91 = EDGE_CURVE ( 'NONE', #46, #99, #175, .T. ) ;
#92 = VECTOR ( 'NONE', #5, 39.37007874015748100 ) ;
#93 = DIRECTION ( 'NONE',  ( 1.000000000000000000, 0.0000000000000000000, 0.0000000000000000000 ) ) ;
#94 =( LENGTH_UNIT ( ) NAMED_UNIT ( * ) SI_UNIT ( $, .METRE. ) );
#95 = DIRECTION ( 'NONE',  ( 1.000000000000000000, 0.0000000000000000000, 0.0000000000000000000 ) ) ;
#96 = LINE ( 'NONE', #138, #76 ) ;
#97 = CARTESIAN_POINT ( 'NONE',  ( -0.2500000000000000600, 3.061616997868384300E-017, -0.1880000000000000300 ) ) ;
#98 = FILL_AREA_STYLE_COLOUR ( '', #198 ) ;
#99 = VERTEX_POINT ( 'NONE', #75 ) ;
#100 = EDGE_CURVE ( 'NONE', #36, #63, #115, .T. ) ;
#101 = DIRECTION ( 'NONE',  ( 1.000000000000000000, 0.0000000000000000000, 0.0000000000000000000 ) ) ;
#102 = ORIENTED_EDGE ( 'NONE', *, *, #118, .F. ) ;
#103 = PRODUCT_CONTEXT ( 'NONE', #137, 'mechanical' ) ;
#104 = DIRECTION ( 'NONE',  ( -0.0000000000000000000, -0.0000000000000000000, 1.000000000000000000 ) ) ;
#105 = UNCERTAINTY_MEASURE_WITH_UNIT (LENGTH_MEASURE( 1.000000000000000100E-005 ), #116, 'distance_accuracy_value', 'NONE');
#106 = ORIENTED_EDGE ( 'NONE', *, *, #203, .T. ) ;
#107 = DIRECTION ( 'NONE',  ( 1.000000000000000000, 0.0000000000000000000, 0.0000000000000000000 ) ) ;
#108 = ORIENTED_EDGE ( 'NONE', *, *, #213, .T. ) ;
#109 = ADVANCED_BREP_SHAPE_REPRESENTATION ( 'am-1181 3-16'''''''' Thick Nylon Spacer', ( #34, #90 ), #158 ) ;
#110 = ORIENTED_EDGE ( 'NONE', *, *, #210, .F. ) ;
#111 = ORIENTED_EDGE ( 'NONE', *, *, #206, .F. ) ;
#112 = DIRECTION ( 'NONE',  ( 1.000000000000000000, 0.0000000000000000000, 0.0000000000000000000 ) ) ;
#113 = DIRECTION ( 'NONE',  ( -0.0000000000000000000, -0.0000000000000000000, 1.000000000000000000 ) ) ;
#114 = CARTESIAN_POINT ( 'NONE',  ( 0.2500000000000002200, 0.0000000000000000000, 7.582401355855259500E-032 ) ) ;
#115 = CIRCLE ( 'NONE', #199, 0.2500000000000000600 ) ;
#116 =( CONVERSION_BASED_UNIT ( 'INCH', #37 ) LENGTH_UNIT ( ) NAMED_UNIT ( #121 ) );
#117 =( GEOMETRIC_REPRESENTATION_CONTEXT ( 3 ) GLOBAL_UNCERTAINTY_ASSIGNED_CONTEXT ( ( #105 ) ) GLOBAL_UNIT_ASSIGNED_CONTEXT ( ( #116, #54, #172 ) ) REPRESENTATION_CONTEXT ( 'NONE', 'WORKASPACE' ) );
#118 = EDGE_CURVE ( 'NONE', #82, #144, #187, .T. ) ;
#119 = CYLINDRICAL_SURFACE ( 'NONE', #183, 0.2500000000000001100 ) ;
#120 = APPLICATION_PROTOCOL_DEFINITION ( 'draft international standard', 'automotive_design', 1998, #15 ) ;
#121 = DIMENSIONAL_EXPONENTS ( 1.000000000000000000, 0.0000000000000000000, 0.0000000000000000000, 0.0000000000000000000, 0.0000000000000000000, 0.0000000000000000000, 0.0000000000000000000 ) ;
#122 = LINE ( 'NONE', #145, #29 ) ;
#123 = DIRECTION ( 'NONE',  ( -0.0000000000000000000, -0.0000000000000000000, 1.000000000000000000 ) ) ;
#124 = MECHANICAL_DESIGN_GEOMETRIC_PRESENTATION_REPRESENTATION (  '', ( #136 ), #117 ) ;
#125 = EDGE_LOOP ( 'NONE', ( #74, #22 ) ) ;
#126 = PRESENTATION_LAYER_ASSIGNMENT (  '', '', ( #136 ) ) ;
#127 = ORIENTED_EDGE ( 'NONE', *, *, #91, .F. ) ;
#128 = ORIENTED_EDGE ( 'NONE', *, *, #210, .T. ) ;
#129 = EDGE_CURVE ( 'NONE', #48, #61, #154, .T. ) ;
#130 = LENGTH_MEASURE_WITH_UNIT ( LENGTH_MEASURE( 0.02539999999999999900 ), #64 );
#131 = CARTESIAN_POINT ( 'NONE',  ( 0.0000000000000000000, 0.0000000000000000000, 7.582401355855259500E-032 ) ) ;
#132 = CARTESIAN_POINT ( 'NONE',  ( 0.3750000000000000600, 0.0000000000000000000, -0.1880000000000000300 ) ) ;
#133 = CARTESIAN_POINT ( 'NONE',  ( 0.0000000000000000000, 0.0000000000000000000, 0.0000000000000000000 ) ) ;
#134 = CARTESIAN_POINT ( 'NONE',  ( 0.0000000000000000000, 0.0000000000000000000, 0.0000000000000000000 ) ) ;
#135 = CARTESIAN_POINT ( 'NONE',  ( 0.0000000000000000000, 0.0000000000000000000, 0.0000000000000000000 ) ) ;
#136 = STYLED_ITEM ( 'NONE', ( #14 ), #109 ) ;
#137 = APPLICATION_CONTEXT ( 'automotive_design' ) ;
#138 = CARTESIAN_POINT ( 'NONE',  ( -0.2500000000000001100, 3.061616997868384300E-017, 0.0000000000000000000 ) ) ;
#139 =( LENGTH_UNIT ( ) NAMED_UNIT ( * ) SI_UNIT ( $, .METRE. ) );
#140 =( NAMED_UNIT ( * ) PLANE_ANGLE_UNIT ( ) SI_UNIT ( $, .RADIAN. ) );
#141 = CARTESIAN_POINT ( 'NONE',  ( 0.2500000000000001100, 0.0000000000000000000, 0.0000000000000000000 ) ) ;
#142 = CYLINDRICAL_SURFACE ( 'NONE', #191, 0.3750000000000000600 ) ;
#143 = EDGE_LOOP ( 'NONE', ( #67, #108, #150, #27 ) ) ;
#144 = VERTEX_POINT ( 'NONE', #190 ) ;
#145 = CARTESIAN_POINT ( 'NONE',  ( 0.3750000000000000600, 0.0000000000000000000, 0.0000000000000000000 ) ) ;
#146 =( NAMED_UNIT ( * ) SI_UNIT ( $, .STERADIAN. ) SOLID_ANGLE_UNIT ( ) );
#147 = ORIENTED_EDGE ( 'NONE', *, *, #204, .F. ) ;
#148 =( NAMED_UNIT ( * ) SI_UNIT ( $, .STERADIAN. ) SOLID_ANGLE_UNIT ( ) );
#149 = DIRECTION ( 'NONE',  ( -0.0000000000000000000, -0.0000000000000000000, 1.000000000000000000 ) ) ;
#150 = ORIENTED_EDGE ( 'NONE', *, *, #204, .T. ) ;
#151 = DIRECTION ( 'NONE',  ( 1.000000000000000000, 0.0000000000000000000, 0.0000000000000000000 ) ) ;
#152 =( CONVERSION_BASED_UNIT ( 'INCH', #58 ) LENGTH_UNIT ( ) NAMED_UNIT ( #4 ) );
#153 = FACE_OUTER_BOUND ( 'NONE', #31, .T. ) ;
#154 = CIRCLE ( 'NONE', #171, 0.3750000000000000600 ) ;
#155 = PRESENTATION_STYLE_ASSIGNMENT (( #195 ) ) ;
#156 = CARTESIAN_POINT ( 'NONE',  ( 0.0000000000000000000, 0.0000000000000000000, 0.0000000000000000000 ) ) ;
#157 = PRODUCT_RELATED_PRODUCT_CATEGORY ( 'part', '', ( #59 ) ) ;
#158 =( GEOMETRIC_REPRESENTATION_CONTEXT ( 3 ) GLOBAL_UNCERTAINTY_ASSIGNED_CONTEXT ( ( #212 ) ) GLOBAL_UNIT_ASSIGNED_CONTEXT ( ( #152, #140, #148 ) ) REPRESENTATION_CONTEXT ( 'NONE', 'WORKASPACE' ) );
#159 = SHAPE_DEFINITION_REPRESENTATION ( #2, #109 ) ;
#160 = AXIS2_PLACEMENT_3D ( 'NONE', #68, #85, #101 ) ;
#161 = AXIS2_PLACEMENT_3D ( 'NONE', #17, #56, #107 ) ;
#162 = DIRECTION ( 'NONE',  ( 1.000000000000000000, 0.0000000000000000000, 0.0000000000000000000 ) ) ;
#163 =( CONVERSION_BASED_UNIT ( 'INCH', #130 ) LENGTH_UNIT ( ) NAMED_UNIT ( #45 ) );
#164 = FACE_BOUND ( 'NONE', #217, .T. ) ;
#165 = DIRECTION ( 'NONE',  ( 1.000000000000000000, 0.0000000000000000000, 0.0000000000000000000 ) ) ;
#166 = DIRECTION ( 'NONE',  ( -0.0000000000000000000, -0.0000000000000000000, 1.000000000000000000 ) ) ;
#167 = ORIENTED_EDGE ( 'NONE', *, *, #129, .T. ) ;
#168 = AXIS2_PLACEMENT_3D ( 'NONE', #134, #104, #151 ) ;
#169 = AXIS2_PLACEMENT_3D ( 'NONE', #173, #70, #211 ) ;
#170 = AXIS2_PLACEMENT_3D ( 'NONE', #43, #123, #35 ) ;
#171 = AXIS2_PLACEMENT_3D ( 'NONE', #78, #166, #95 ) ;
#172 =( NAMED_UNIT ( * ) SI_UNIT ( $, .STERADIAN. ) SOLID_ANGLE_UNIT ( ) );
#173 = CARTESIAN_POINT ( 'NONE',  ( 0.0000000000000000000, 0.0000000000000000000, 7.582401355855259500E-032 ) ) ;
#174 = AXIS2_PLACEMENT_3D ( 'NONE', #156, #28, #162 ) ;
#175 = CIRCLE ( 'NONE', #184, 0.2500000000000002200 ) ;
#176 = DIRECTION ( 'NONE',  ( -0.0000000000000000000, -0.0000000000000000000, 1.000000000000000000 ) ) ;
#177 =( GEOMETRIC_REPRESENTATION_CONTEXT ( 3 ) GLOBAL_UNCERTAINTY_ASSIGNED_CONTEXT ( ( #216 ) ) GLOBAL_UNIT_ASSIGNED_CONTEXT ( ( #163, #51, #146 ) ) REPRESENTATION_CONTEXT ( 'NONE', 'WORKASPACE' ) );
#178 = DIRECTION ( 'NONE',  ( -0.0000000000000000000, -0.0000000000000000000, 1.000000000000000000 ) ) ;
#179 = MECHANICAL_DESIGN_GEOMETRIC_PRESENTATION_REPRESENTATION (  '', ( #182 ), #177 ) ;
#180 = ORIENTED_EDGE ( 'NONE', *, *, #209, .T. ) ;
#181 = PRESENTATION_LAYER_ASSIGNMENT (  '', '', ( #182 ) ) ;
#182 = STYLED_ITEM ( 'NONE', ( #155 ), #34 ) ;
#183 = AXIS2_PLACEMENT_3D ( 'NONE', #133, #149, #165 ) ;
#184 = AXIS2_PLACEMENT_3D ( 'NONE', #131, #218, #93 ) ;
#185 = FACE_OUTER_BOUND ( 'NONE', #7, .T. ) ;
#186 = AXIS2_PLACEMENT_3D ( 'NONE', #52, #65, #42 ) ;
#187 = CIRCLE ( 'NONE', #174, 0.3750000000000000600 ) ;
#188 = AXIS2_PLACEMENT_3D ( 'NONE', #24, #113, #196 ) ;
#189 = AXIS2_PLACEMENT_3D ( 'NONE', #50, #12, #40 ) ;
#190 = CARTESIAN_POINT ( 'NONE',  ( 0.3750000000000000600, 0.0000000000000000000, 0.0000000000000000000 ) ) ;
#191 = AXIS2_PLACEMENT_3D ( 'NONE', #219, #66, #197 ) ;
#192 = PLANE ( 'NONE',  #189 ) ;
#193 = FACE_BOUND ( 'NONE', #38, .T. ) ;
#194 = DIRECTION ( 'NONE',  ( -0.0000000000000000000, -0.0000000000000000000, 1.000000000000000000 ) ) ;
#195 = SURFACE_STYLE_USAGE ( .BOTH. , #77 ) ;
#196 = DIRECTION ( 'NONE',  ( 1.000000000000000000, 0.0000000000000000000, 0.0000000000000000000 ) ) ;
#197 = DIRECTION ( 'NONE',  ( 1.000000000000000000, 0.0000000000000000000, 0.0000000000000000000 ) ) ;
#198 = COLOUR_RGB ( '',1.000000000000000000, 0.9882352941176471000, 0.7176470588235294200 ) ;
#199 = AXIS2_PLACEMENT_3D ( 'NONE', #49, #23, #112 ) ;
#200 = EDGE_LOOP ( 'NONE', ( #128, #13 ) ) ;
#201 = EDGE_CURVE ( 'NONE', #61, #144, #122, .T. ) ;
#202 = DIRECTION ( 'NONE',  ( 0.0000000000000000000, 0.0000000000000000000, 1.000000000000000000 ) ) ;
#203 = EDGE_CURVE ( 'NONE', #61, #48, #71, .T. ) ;
#204 = EDGE_CURVE ( 'NONE', #99, #46, #39, .T. ) ;
#205 = SURFACE_STYLE_FILL_AREA ( #222 ) ;
#206 = EDGE_CURVE ( 'NONE', #48, #82, #21, .T. ) ;
#207 = ADVANCED_FACE ( 'NONE', ( #185 ), #86, .T. ) ;
#208 = ORIENTED_EDGE ( 'NONE', *, *, #91, .T. ) ;
#209 = EDGE_CURVE ( 'NONE', #63, #36, #69, .T. ) ;
#210 = EDGE_CURVE ( 'NONE', #144, #82, #88, .T. ) ;
#211 = DIRECTION ( 'NONE',  ( 1.000000000000000000, 0.0000000000000000000, 0.0000000000000000000 ) ) ;
#212 = UNCERTAINTY_MEASURE_WITH_UNIT (LENGTH_MEASURE( 1.000000000000000100E-005 ), #152, 'distance_accuracy_value', 'NONE');
#213 = EDGE_CURVE ( 'NONE', #63, #99, #96, .T. ) ;
#214 = ORIENTED_EDGE ( 'NONE', *, *, #100, .F. ) ;
#215 = LINE ( 'NONE', #141, #62 ) ;
#216 = UNCERTAINTY_MEASURE_WITH_UNIT (LENGTH_MEASURE( 1.000000000000000100E-005 ), #163, 'distance_accuracy_value', 'NONE');
#217 = EDGE_LOOP ( 'NONE', ( #127, #147 ) ) ;
#218 = DIRECTION ( 'NONE',  ( -0.0000000000000000000, -0.0000000000000000000, 1.000000000000000000 ) ) ;
#219 = CARTESIAN_POINT ( 'NONE',  ( 0.0000000000000000000, 0.0000000000000000000, 0.0000000000000000000 ) ) ;
#220 = ORIENTED_EDGE ( 'NONE', *, *, #201, .T. ) ;
#221 = EDGE_CURVE ( 'NONE', #36, #46, #215, .T. ) ;
#222 = FILL_AREA_STYLE ('',( #98 ) ) ;
#223 = FACE_OUTER_BOUND ( 'NONE', #200, .T. ) ;
ENDSEC;
END-ISO-10303-21;
