ISO-10303-21;
HEADER;
FILE_DESCRIPTION (( 'STEP AP214' ),
    '1' );
FILE_NAME ('am-0863 Rail Spacer for Modulox.STEP',
    '2014-08-20T21:14:23',
    ( '' ),
    ( '' ),
    'SwSTEP 2.0',
    'SolidWorks 2014',
    '' );
FILE_SCHEMA (( 'AUTOMOTIVE_DESIGN' ));
ENDSEC;

DATA;
#1 = EDGE_LOOP ( 'NONE', ( #63, #95, #174, #27 ) ) ;
#2 = LENGTH_MEASURE_WITH_UNIT ( LENGTH_MEASURE( 0.02539999999999999900 ), #84 );
#3 = EDGE_LOOP ( 'NONE', ( #52, #59 ) ) ;
#4 = CARTESIAN_POINT ( 'NONE',  ( 0.0000000000000000000, 1.519999999999999800, -0.1899999999999999700 ) ) ;
#5 = UNCERTAINTY_MEASURE_WITH_UNIT (LENGTH_MEASURE( 1.000000000000000100E-005 ), #83, 'distance_accuracy_value', 'NONE');
#6 = DIRECTION ( 'NONE',  ( -0.0000000000000000000, -1.000000000000000000, -0.0000000000000000000 ) ) ;
#7 = LINE ( 'NONE', #4, #130 ) ;
#8 = VERTEX_POINT ( 'NONE', #148 ) ;
#9 = DIRECTION ( 'NONE',  ( 0.0000000000000000000, 0.0000000000000000000, 1.000000000000000000 ) ) ;
#10 = VERTEX_POINT ( 'NONE', #157 ) ;
#11 = DIRECTION ( 'NONE',  ( 0.0000000000000000000, -0.0000000000000000000, 1.000000000000000000 ) ) ;
#12 = VERTEX_POINT ( 'NONE', #188 ) ;
#13 = FACE_BOUND ( 'NONE', #183, .T. ) ;
#14 = LENGTH_MEASURE_WITH_UNIT ( LENGTH_MEASURE( 0.02539999999999999900 ), #151 );
#15 = FACE_OUTER_BOUND ( 'NONE', #190, .T. ) ;
#16 = DIRECTION ( 'NONE',  ( 0.0000000000000000000, 1.000000000000000000, 0.0000000000000000000 ) ) ;
#17 = VECTOR ( 'NONE', #55, 39.37007874015748100 ) ;
#18 = FACE_OUTER_BOUND ( 'NONE', #3, .T. ) ;
#19 = CARTESIAN_POINT ( 'NONE',  ( 0.0000000000000000000, 0.0000000000000000000, 0.0000000000000000000 ) ) ;
#20 = FACE_OUTER_BOUND ( 'NONE', #1, .T. ) ;
#21 = ORIENTED_EDGE ( 'NONE', *, *, #128, .T. ) ;
#22 = DIRECTION ( 'NONE',  ( 0.0000000000000000000, -0.0000000000000000000, 1.000000000000000000 ) ) ;
#23 = CARTESIAN_POINT ( 'NONE',  ( 0.0000000000000000000, 0.0000000000000000000, 0.0000000000000000000 ) ) ;
#24 = PLANE ( 'NONE',  #223 ) ;
#25 = CYLINDRICAL_SURFACE ( 'NONE', #206, 0.1200000000000000000 ) ;
#26 = CYLINDRICAL_SURFACE ( 'NONE', #192, 0.1899999999999999700 ) ;
#27 = ORIENTED_EDGE ( 'NONE', *, *, #199, .F. ) ;
#28 = CARTESIAN_POINT ( 'NONE',  ( 0.0000000000000000000, 1.519999999999999800, 0.0000000000000000000 ) ) ;
#29 = DIRECTION ( 'NONE',  ( 0.0000000000000000000, 0.0000000000000000000, 1.000000000000000000 ) ) ;
#30 = SURFACE_STYLE_FILL_AREA ( #110 ) ;
#31 = CIRCLE ( 'NONE', #220, 0.1200000000000000000 ) ;
#32 = DIRECTION ( 'NONE',  ( 0.0000000000000000000, 1.000000000000000000, 0.0000000000000000000 ) ) ;
#33 = VERTEX_POINT ( 'NONE', #186 ) ;
#34 = PRESENTATION_STYLE_ASSIGNMENT (( #76 ) ) ;
#35 = CIRCLE ( 'NONE', #219, 0.1899999999999999700 ) ;
#36 = DIRECTION ( 'NONE',  ( 1.000000000000000000, 0.0000000000000000000, 0.0000000000000000000 ) ) ;
#37 = ORIENTED_EDGE ( 'NONE', *, *, #129, .F. ) ;
#38 = ORIENTED_EDGE ( 'NONE', *, *, #164, .T. ) ;
#39 = FACE_OUTER_BOUND ( 'NONE', #213, .T. ) ;
#40 = ORIENTED_EDGE ( 'NONE', *, *, #131, .T. ) ;
#41 = CARTESIAN_POINT ( 'NONE',  ( 0.0000000000000000000, 0.0000000000000000000, 0.0000000000000000000 ) ) ;
#42 = PRODUCT_DEFINITION_SHAPE ( 'NONE', 'NONE',  #195 ) ;
#43 = CIRCLE ( 'NONE', #222, 0.1899999999999999700 ) ;
#44 = CIRCLE ( 'NONE', #217, 0.1899999999999999700 ) ;
#45 = CARTESIAN_POINT ( 'NONE',  ( 0.0000000000000000000, 1.519999999999999800, 0.0000000000000000000 ) ) ;
#46 = ORIENTED_EDGE ( 'NONE', *, *, #159, .T. ) ;
#47 = DIRECTION ( 'NONE',  ( -0.0000000000000000000, -1.000000000000000000, -0.0000000000000000000 ) ) ;
#48 = ORIENTED_EDGE ( 'NONE', *, *, #161, .F. ) ;
#49 = UNCERTAINTY_MEASURE_WITH_UNIT (LENGTH_MEASURE( 1.000000000000000100E-005 ), #50, 'distance_accuracy_value', 'NONE');
#50 =( CONVERSION_BASED_UNIT ( 'INCH', #14 ) LENGTH_UNIT ( ) NAMED_UNIT ( #113 ) );
#51 = ORIENTED_EDGE ( 'NONE', *, *, #128, .F. ) ;
#52 = ORIENTED_EDGE ( 'NONE', *, *, #162, .F. ) ;
#53 = DIRECTION ( 'NONE',  ( 0.0000000000000000000, 0.0000000000000000000, 1.000000000000000000 ) ) ;
#54 = PRODUCT_DEFINITION_CONTEXT ( 'detailed design', #171, 'design' ) ;
#55 = DIRECTION ( 'NONE',  ( -0.0000000000000000000, -1.000000000000000000, -0.0000000000000000000 ) ) ;
#56 = DIRECTION ( 'NONE',  ( 0.0000000000000000000, 0.0000000000000000000, -1.000000000000000000 ) ) ;
#57 = COLOUR_RGB ( '',0.8941176470588234600, 0.9137254901960784000, 0.9294117647058823800 ) ;
#58 = FACE_BOUND ( 'NONE', #147, .T. ) ;
#59 = ORIENTED_EDGE ( 'NONE', *, *, #137, .F. ) ;
#60 = DIRECTION ( 'NONE',  ( 0.0000000000000000000, 1.000000000000000000, 0.0000000000000000000 ) ) ;
#61 = DIRECTION ( 'NONE',  ( -0.0000000000000000000, -1.000000000000000000, -0.0000000000000000000 ) ) ;
#62 = PRODUCT_CONTEXT ( 'NONE', #77, 'mechanical' ) ;
#63 = ORIENTED_EDGE ( 'NONE', *, *, #133, .F. ) ;
#64 =( NAMED_UNIT ( * ) SI_UNIT ( $, .STERADIAN. ) SOLID_ANGLE_UNIT ( ) );
#65 = EDGE_LOOP ( 'NONE', ( #81, #118, #89, #92 ) ) ;
#66 = CIRCLE ( 'NONE', #201, 0.1899999999999999700 ) ;
#67 = EDGE_CURVE ( 'NONE', #33, #124, #119, .T. ) ;
#68 = DIRECTION ( 'NONE',  ( 0.0000000000000000000, 1.000000000000000000, 0.0000000000000000000 ) ) ;
#69 =( NAMED_UNIT ( * ) SI_UNIT ( $, .STERADIAN. ) SOLID_ANGLE_UNIT ( ) );
#70 = CARTESIAN_POINT ( 'NONE',  ( 0.0000000000000000000, 1.519999999999999800, 0.0000000000000000000 ) ) ;
#71 = CARTESIAN_POINT ( 'NONE',  ( 0.0000000000000000000, 0.0000000000000000000, -0.1200000000000000000 ) ) ;
#72 = DIRECTION ( 'NONE',  ( 0.0000000000000000000, 0.0000000000000000000, 1.000000000000000000 ) ) ;
#73 = ORIENTED_EDGE ( 'NONE', *, *, #135, .F. ) ;
#74 = PRODUCT ( 'am-0863 Rail Spacer for Modulox', 'am-0863 Rail Spacer for Modulox', '', ( #62 ) ) ;
#75 = APPLICATION_PROTOCOL_DEFINITION ( 'draft international standard', 'automotive_design', 1998, #171 ) ;
#76 = SURFACE_STYLE_USAGE ( .BOTH. , #172 ) ;
#77 = APPLICATION_CONTEXT ( 'automotive_design' ) ;
#78 = ORIENTED_EDGE ( 'NONE', *, *, #159, .F. ) ;
#79 = ORIENTED_EDGE ( 'NONE', *, *, #199, .T. ) ;
#80 = ORIENTED_EDGE ( 'NONE', *, *, #162, .T. ) ;
#81 = ORIENTED_EDGE ( 'NONE', *, *, #131, .F. ) ;
#82 =( NAMED_UNIT ( * ) PLANE_ANGLE_UNIT ( ) SI_UNIT ( $, .RADIAN. ) );
#83 =( CONVERSION_BASED_UNIT ( 'INCH', #2 ) LENGTH_UNIT ( ) NAMED_UNIT ( #111 ) );
#84 =( LENGTH_UNIT ( ) NAMED_UNIT ( * ) SI_UNIT ( $, .METRE. ) );
#85 = VERTEX_POINT ( 'NONE', #202 ) ;
#86 = DIRECTION ( 'NONE',  ( 0.0000000000000000000, 1.000000000000000000, 0.0000000000000000000 ) ) ;
#87 = CARTESIAN_POINT ( 'NONE',  ( 0.0000000000000000000, 1.519999999999999800, 0.0000000000000000000 ) ) ;
#88 = CARTESIAN_POINT ( 'NONE',  ( 2.326828918379970900E-017, 1.519999999999999800, 0.1899999999999999700 ) ) ;
#89 = ORIENTED_EDGE ( 'NONE', *, *, #67, .T. ) ;
#90 = CARTESIAN_POINT ( 'NONE',  ( 0.0000000000000000000, 1.519999999999999800, 0.0000000000000000000 ) ) ;
#91 = DIRECTION ( 'NONE',  ( -0.0000000000000000000, -1.000000000000000000, -0.0000000000000000000 ) ) ;
#92 = ORIENTED_EDGE ( 'NONE', *, *, #164, .F. ) ;
#93 =( CONVERSION_BASED_UNIT ( 'INCH', #187 ) LENGTH_UNIT ( ) NAMED_UNIT ( #106 ) );
#94 = ADVANCED_BREP_SHAPE_REPRESENTATION ( 'am-0863 Rail Spacer for Modulox', ( #163, #196 ), #209 ) ;
#95 = ORIENTED_EDGE ( 'NONE', *, *, #135, .T. ) ;
#96 = SURFACE_STYLE_USAGE ( .BOTH. , #97 ) ;
#97 = SURFACE_SIDE_STYLE ('',( #30 ) ) ;
#98 = DIRECTION ( 'NONE',  ( 0.0000000000000000000, 0.0000000000000000000, 1.000000000000000000 ) ) ;
#99 = DIRECTION ( 'NONE',  ( 0.0000000000000000000, 1.000000000000000000, 0.0000000000000000000 ) ) ;
#100 = DIRECTION ( 'NONE',  ( 0.0000000000000000000, 0.0000000000000000000, -1.000000000000000000 ) ) ;
#101 = CARTESIAN_POINT ( 'NONE',  ( 0.0000000000000000000, 0.0000000000000000000, 0.0000000000000000000 ) ) ;
#102 = DIRECTION ( 'NONE',  ( 0.0000000000000000000, 0.0000000000000000000, 1.000000000000000000 ) ) ;
#103 =( NAMED_UNIT ( * ) SI_UNIT ( $, .STERADIAN. ) SOLID_ANGLE_UNIT ( ) );
#104 = FILL_AREA_STYLE ('',( #215 ) ) ;
#105 = CLOSED_SHELL ( 'NONE', ( #120, #136, #140, #141, #115, #138 ) ) ;
#106 = DIMENSIONAL_EXPONENTS ( 1.000000000000000000, 0.0000000000000000000, 0.0000000000000000000, 0.0000000000000000000, 0.0000000000000000000, 0.0000000000000000000, 0.0000000000000000000 ) ;
#107 = CARTESIAN_POINT ( 'NONE',  ( 0.0000000000000000000, 0.0000000000000000000, 0.0000000000000000000 ) ) ;
#108 = VERTEX_POINT ( 'NONE', #168 ) ;
#109 = CARTESIAN_POINT ( 'NONE',  ( 0.0000000000000000000, 0.0000000000000000000, 0.0000000000000000000 ) ) ;
#110 = FILL_AREA_STYLE ('',( #185 ) ) ;
#111 = DIMENSIONAL_EXPONENTS ( 1.000000000000000000, 0.0000000000000000000, 0.0000000000000000000, 0.0000000000000000000, 0.0000000000000000000, 0.0000000000000000000, 0.0000000000000000000 ) ;
#112 = DIRECTION ( 'NONE',  ( 0.0000000000000000000, 0.0000000000000000000, -1.000000000000000000 ) ) ;
#113 = DIMENSIONAL_EXPONENTS ( 1.000000000000000000, 0.0000000000000000000, 0.0000000000000000000, 0.0000000000000000000, 0.0000000000000000000, 0.0000000000000000000, 0.0000000000000000000 ) ;
#114 = DIRECTION ( 'NONE',  ( -0.0000000000000000000, -1.000000000000000000, -0.0000000000000000000 ) ) ;
#115 = ADVANCED_FACE ( 'NONE', ( #198 ), #117, .T. ) ;
#116 = DIRECTION ( 'NONE',  ( 0.0000000000000000000, 1.000000000000000000, 0.0000000000000000000 ) ) ;
#117 = CYLINDRICAL_SURFACE ( 'NONE', #123, 0.1899999999999999700 ) ;
#118 = ORIENTED_EDGE ( 'NONE', *, *, #161, .T. ) ;
#119 = LINE ( 'NONE', #207, #189 ) ;
#120 = ADVANCED_FACE ( 'NONE', ( #39 ), #182, .F. ) ;
#121 = CARTESIAN_POINT ( 'NONE',  ( 1.469576158976823700E-017, 1.519999999999999800, 0.1200000000000000000 ) ) ;
#122 = ORIENTED_EDGE ( 'NONE', *, *, #129, .T. ) ;
#123 = AXIS2_PLACEMENT_3D ( 'NONE', #146, #114, #145 ) ;
#124 = VERTEX_POINT ( 'NONE', #71 ) ;
#125 = AXIS2_PLACEMENT_3D ( 'NONE', #101, #116, #102 ) ;
#126 = AXIS2_PLACEMENT_3D ( 'NONE', #70, #149, #160 ) ;
#127 = DIRECTION ( 'NONE',  ( 0.0000000000000000000, 0.0000000000000000000, 1.000000000000000000 ) ) ;
#128 = EDGE_CURVE ( 'NONE', #33, #108, #179, .T. ) ;
#129 = EDGE_CURVE ( 'NONE', #124, #173, #176, .T. ) ;
#130 = VECTOR ( 'NONE', #6, 39.37007874015748100 ) ;
#131 = EDGE_CURVE ( 'NONE', #108, #173, #169, .T. ) ;
#132 = FACE_OUTER_BOUND ( 'NONE', #65, .T. ) ;
#133 = EDGE_CURVE ( 'NONE', #8, #85, #66, .T. ) ;
#134 = SURFACE_STYLE_FILL_AREA ( #104 ) ;
#135 = EDGE_CURVE ( 'NONE', #8, #12, #177, .T. ) ;
#136 = ADVANCED_FACE ( 'NONE', ( #20 ), #26, .T. ) ;
#137 = EDGE_CURVE ( 'NONE', #12, #10, #44, .T. ) ;
#138 = ADVANCED_FACE ( 'NONE', ( #132 ), #25, .F. ) ;
#139 = SHAPE_DEFINITION_REPRESENTATION ( #42, #94 ) ;
#140 = ADVANCED_FACE ( 'NONE', ( #15, #58 ), #24, .T. ) ;
#141 = ADVANCED_FACE ( 'NONE', ( #18, #13 ), #142, .F. ) ;
#142 = PLANE ( 'NONE',  #221 ) ;
#143 = CARTESIAN_POINT ( 'NONE',  ( 1.469576158976823700E-017, 0.0000000000000000000, 0.1200000000000000000 ) ) ;
#144 = CARTESIAN_POINT ( 'NONE',  ( 0.0000000000000000000, 1.519999999999999800, 0.0000000000000000000 ) ) ;
#145 = DIRECTION ( 'NONE',  ( 0.0000000000000000000, 0.0000000000000000000, -1.000000000000000000 ) ) ;
#146 = CARTESIAN_POINT ( 'NONE',  ( 0.0000000000000000000, 1.519999999999999800, 0.0000000000000000000 ) ) ;
#147 = EDGE_LOOP ( 'NONE', ( #51, #48 ) ) ;
#148 = CARTESIAN_POINT ( 'NONE',  ( 2.326828918379970900E-017, 1.519999999999999800, 0.1899999999999999700 ) ) ;
#149 = DIRECTION ( 'NONE',  ( 0.0000000000000000000, 1.000000000000000000, 0.0000000000000000000 ) ) ;
#150 = APPLICATION_PROTOCOL_DEFINITION ( 'draft international standard', 'automotive_design', 1998, #77 ) ;
#151 =( LENGTH_UNIT ( ) NAMED_UNIT ( * ) SI_UNIT ( $, .METRE. ) );
#152 = CIRCLE ( 'NONE', #211, 0.1200000000000000000 ) ;
#153 = VECTOR ( 'NONE', #156, 39.37007874015748100 ) ;
#154 = DIRECTION ( 'NONE',  ( 0.0000000000000000000, 1.000000000000000000, 0.0000000000000000000 ) ) ;
#155 = CARTESIAN_POINT ( 'NONE',  ( 0.0000000000000000000, 1.519999999999999800, 0.0000000000000000000 ) ) ;
#156 = DIRECTION ( 'NONE',  ( -0.0000000000000000000, -1.000000000000000000, -0.0000000000000000000 ) ) ;
#157 = CARTESIAN_POINT ( 'NONE',  ( 0.0000000000000000000, 0.0000000000000000000, -0.1899999999999999700 ) ) ;
#158 = DIRECTION ( 'NONE',  ( -0.0000000000000000000, -1.000000000000000000, -0.0000000000000000000 ) ) ;
#159 = EDGE_CURVE ( 'NONE', #85, #8, #43, .T. ) ;
#160 = DIRECTION ( 'NONE',  ( 0.0000000000000000000, 0.0000000000000000000, 1.000000000000000000 ) ) ;
#161 = EDGE_CURVE ( 'NONE', #108, #33, #31, .T. ) ;
#162 = EDGE_CURVE ( 'NONE', #10, #12, #35, .T. ) ;
#163 = MANIFOLD_SOLID_BREP ( 'Boss-Extrude1', #105 ) ;
#164 = EDGE_CURVE ( 'NONE', #173, #124, #152, .T. ) ;
#165 =( NAMED_UNIT ( * ) PLANE_ANGLE_UNIT ( ) SI_UNIT ( $, .RADIAN. ) );
#166 = DIRECTION ( 'NONE',  ( 0.0000000000000000000, 0.0000000000000000000, 1.000000000000000000 ) ) ;
#167 = DIRECTION ( 'NONE',  ( 0.0000000000000000000, 1.000000000000000000, 0.0000000000000000000 ) ) ;
#168 = CARTESIAN_POINT ( 'NONE',  ( 1.469576158976823700E-017, 1.519999999999999800, 0.1200000000000000000 ) ) ;
#169 = LINE ( 'NONE', #121, #153 ) ;
#170 = COLOUR_RGB ( '',0.8941176470588234600, 0.9137254901960784000, 0.9294117647058823800 ) ;
#171 = APPLICATION_CONTEXT ( 'automotive_design' ) ;
#172 = SURFACE_SIDE_STYLE ('',( #134 ) ) ;
#173 = VERTEX_POINT ( 'NONE', #143 ) ;
#174 = ORIENTED_EDGE ( 'NONE', *, *, #137, .T. ) ;
#175 = ORIENTED_EDGE ( 'NONE', *, *, #133, .T. ) ;
#176 = CIRCLE ( 'NONE', #125, 0.1200000000000000000 ) ;
#177 = LINE ( 'NONE', #88, #17 ) ;
#178 = PRESENTATION_STYLE_ASSIGNMENT (( #96 ) ) ;
#179 = CIRCLE ( 'NONE', #126, 0.1200000000000000000 ) ;
#180 = EDGE_LOOP ( 'NONE', ( #73, #78, #79, #80 ) ) ;
#181 = ORIENTED_EDGE ( 'NONE', *, *, #67, .F. ) ;
#182 = CYLINDRICAL_SURFACE ( 'NONE', #205, 0.1200000000000000000 ) ;
#183 = EDGE_LOOP ( 'NONE', ( #122, #38 ) ) ;
#184 = CARTESIAN_POINT ( 'NONE',  ( 0.0000000000000000000, 1.519999999999999800, 0.0000000000000000000 ) ) ;
#185 = FILL_AREA_STYLE_COLOUR ( '', #57 ) ;
#186 = CARTESIAN_POINT ( 'NONE',  ( 0.0000000000000000000, 1.519999999999999800, -0.1200000000000000000 ) ) ;
#187 = LENGTH_MEASURE_WITH_UNIT ( LENGTH_MEASURE( 0.02539999999999999900 ), #191 );
#188 = CARTESIAN_POINT ( 'NONE',  ( 2.326828918379970900E-017, 0.0000000000000000000, 0.1899999999999999700 ) ) ;
#189 = VECTOR ( 'NONE', #158, 39.37007874015748100 ) ;
#190 = EDGE_LOOP ( 'NONE', ( #46, #175 ) ) ;
#191 =( LENGTH_UNIT ( ) NAMED_UNIT ( * ) SI_UNIT ( $, .METRE. ) );
#192 = AXIS2_PLACEMENT_3D ( 'NONE', #90, #61, #100 ) ;
#193 = PRODUCT_RELATED_PRODUCT_CATEGORY ( 'part', '', ( #74 ) ) ;
#194 = PRODUCT_DEFINITION_FORMATION_WITH_SPECIFIED_SOURCE ( 'ANY', '', #74, .NOT_KNOWN. ) ;
#195 = PRODUCT_DEFINITION ( 'UNKNOWN', '', #194, #54 ) ;
#196 = AXIS2_PLACEMENT_3D ( 'NONE', #23, #127, #36 ) ;
#197 = UNCERTAINTY_MEASURE_WITH_UNIT (LENGTH_MEASURE( 1.000000000000000100E-005 ), #93, 'distance_accuracy_value', 'NONE');
#198 = FACE_OUTER_BOUND ( 'NONE', #180, .T. ) ;
#199 = EDGE_CURVE ( 'NONE', #85, #10, #7, .T. ) ;
#200 =( GEOMETRIC_REPRESENTATION_CONTEXT ( 3 ) GLOBAL_UNCERTAINTY_ASSIGNED_CONTEXT ( ( #197 ) ) GLOBAL_UNIT_ASSIGNED_CONTEXT ( ( #93, #210, #103 ) ) REPRESENTATION_CONTEXT ( 'NONE', 'WORKASPACE' ) );
#201 = AXIS2_PLACEMENT_3D ( 'NONE', #87, #86, #72 ) ;
#202 = CARTESIAN_POINT ( 'NONE',  ( 0.0000000000000000000, 1.519999999999999800, -0.1899999999999999700 ) ) ;
#203 = MECHANICAL_DESIGN_GEOMETRIC_PRESENTATION_REPRESENTATION (  '', ( #208 ), #200 ) ;
#204 = PRESENTATION_LAYER_ASSIGNMENT (  '', '', ( #208 ) ) ;
#205 = AXIS2_PLACEMENT_3D ( 'NONE', #144, #91, #112 ) ;
#206 = AXIS2_PLACEMENT_3D ( 'NONE', #45, #47, #56 ) ;
#207 = CARTESIAN_POINT ( 'NONE',  ( 0.0000000000000000000, 1.519999999999999800, -0.1200000000000000000 ) ) ;
#208 = STYLED_ITEM ( 'NONE', ( #34 ), #94 ) ;
#209 =( GEOMETRIC_REPRESENTATION_CONTEXT ( 3 ) GLOBAL_UNCERTAINTY_ASSIGNED_CONTEXT ( ( #49 ) ) GLOBAL_UNIT_ASSIGNED_CONTEXT ( ( #50, #165, #64 ) ) REPRESENTATION_CONTEXT ( 'NONE', 'WORKASPACE' ) );
#210 =( NAMED_UNIT ( * ) PLANE_ANGLE_UNIT ( ) SI_UNIT ( $, .RADIAN. ) );
#211 = AXIS2_PLACEMENT_3D ( 'NONE', #19, #16, #9 ) ;
#212 =( GEOMETRIC_REPRESENTATION_CONTEXT ( 3 ) GLOBAL_UNCERTAINTY_ASSIGNED_CONTEXT ( ( #5 ) ) GLOBAL_UNIT_ASSIGNED_CONTEXT ( ( #83, #82, #69 ) ) REPRESENTATION_CONTEXT ( 'NONE', 'WORKASPACE' ) );
#213 = EDGE_LOOP ( 'NONE', ( #21, #40, #37, #181 ) ) ;
#214 = MECHANICAL_DESIGN_GEOMETRIC_PRESENTATION_REPRESENTATION (  '', ( #218 ), #212 ) ;
#215 = FILL_AREA_STYLE_COLOUR ( '', #170 ) ;
#216 = PRESENTATION_LAYER_ASSIGNMENT (  '', '', ( #218 ) ) ;
#217 = AXIS2_PLACEMENT_3D ( 'NONE', #41, #32, #29 ) ;
#218 = STYLED_ITEM ( 'NONE', ( #178 ), #163 ) ;
#219 = AXIS2_PLACEMENT_3D ( 'NONE', #107, #99, #98 ) ;
#220 = AXIS2_PLACEMENT_3D ( 'NONE', #155, #154, #53 ) ;
#221 = AXIS2_PLACEMENT_3D ( 'NONE', #109, #68, #22 ) ;
#222 = AXIS2_PLACEMENT_3D ( 'NONE', #184, #167, #166 ) ;
#223 = AXIS2_PLACEMENT_3D ( 'NONE', #28, #60, #11 ) ;
ENDSEC;
END-ISO-10303-21;
