ISO-10303-21;
HEADER;
FILE_DESCRIPTION (( 'STEP AP214' ),
    '1' );
FILE_NAME ('am-0333 AMS Brass Tube.STEP',
    '2014-08-20T20:58:03',
    ( '' ),
    ( '' ),
    'SwSTEP 2.0',
    'SolidWorks 2014',
    '' );
FILE_SCHEMA (( 'AUTOMOTIVE_DESIGN' ));
ENDSEC;

DATA;
#1 = PRODUCT_CONTEXT ( 'NONE', #71, 'mechanical' ) ;
#2 = ADVANCED_FACE ( 'NONE', ( #111 ), #107, .F. ) ;
#3 = DIRECTION ( 'NONE',  ( -1.000000000000000000, 0.0000000000000000000, 0.0000000000000000000 ) ) ;
#4 = CARTESIAN_POINT ( 'NONE',  ( -6.349999999999990800, 0.0000000000000000000, 0.0000000000000000000 ) ) ;
#5 = CARTESIAN_POINT ( 'NONE',  ( 6.938893903907228400E-015, 0.0000000000000000000, 0.0000000000000000000 ) ) ;
#6 = DIRECTION ( 'NONE',  ( 0.0000000000000000000, 0.0000000000000000000, -1.000000000000000000 ) ) ;
#7 = CARTESIAN_POINT ( 'NONE',  ( 0.0000000000000000000, 0.0000000000000000000, 0.0000000000000000000 ) ) ;
#8 = APPLICATION_PROTOCOL_DEFINITION ( 'draft international standard', 'automotive_design', 1998, #64 ) ;
#9 = DIRECTION ( 'NONE',  ( 0.0000000000000000000, -0.0000000000000000000, 1.000000000000000000 ) ) ;
#10 = CARTESIAN_POINT ( 'NONE',  ( 6.938893903907228400E-015, 0.0000000000000000000, 0.0000000000000000000 ) ) ;
#11 = DIRECTION ( 'NONE',  ( 0.0000000000000000000, 0.0000000000000000000, -1.000000000000000000 ) ) ;
#12 = FILL_AREA_STYLE ('',( #28 ) ) ;
#13 = CARTESIAN_POINT ( 'NONE',  ( 6.938893903907228400E-015, 0.0000000000000000000, 29.71799999999999600 ) ) ;
#14 = DIRECTION ( 'NONE',  ( -1.000000000000000000, 0.0000000000000000000, -0.0000000000000000000 ) ) ;
#15 = ADVANCED_BREP_SHAPE_REPRESENTATION ( 'am-0333 AMS Brass Tube', ( #36, #155 ), #167 ) ;
#16 = DIRECTION ( 'NONE',  ( 0.0000000000000000000, 0.0000000000000000000, -1.000000000000000000 ) ) ;
#17 = DIRECTION ( 'NONE',  ( 0.0000000000000000000, 0.0000000000000000000, -1.000000000000000000 ) ) ;
#18 = SURFACE_STYLE_USAGE ( .BOTH. , #90 ) ;
#19 = SHAPE_DEFINITION_REPRESENTATION ( #77, #15 ) ;
#20 = CARTESIAN_POINT ( 'NONE',  ( 6.350000000000005000, 7.776507174585690200E-016, 29.71799999999999600 ) ) ;
#21 =( LENGTH_UNIT ( ) NAMED_UNIT ( * ) SI_UNIT ( .MILLI., .METRE. ) );
#22 = CARTESIAN_POINT ( 'NONE',  ( 6.938893903907228400E-015, 0.0000000000000000000, 29.71799999999999600 ) ) ;
#23 = UNCERTAINTY_MEASURE_WITH_UNIT (LENGTH_MEASURE( 1.000000000000000100E-005 ), #38, 'distance_accuracy_value', 'NONE');
#24 = DIRECTION ( 'NONE',  ( -1.000000000000000000, 0.0000000000000000000, 0.0000000000000000000 ) ) ;
#25 = PRESENTATION_STYLE_ASSIGNMENT (( #18 ) ) ;
#26 = SURFACE_STYLE_FILL_AREA ( #12 ) ;
#27 = COLOUR_RGB ( '',0.6470588235294118000, 0.5176470588235293500, 0.0000000000000000000 ) ;
#28 = FILL_AREA_STYLE_COLOUR ( '', #27 ) ;
#29 = DIRECTION ( 'NONE',  ( -1.000000000000000000, 0.0000000000000000000, 0.0000000000000000000 ) ) ;
#30 =( NAMED_UNIT ( * ) PLANE_ANGLE_UNIT ( ) SI_UNIT ( $, .RADIAN. ) );
#31 = ADVANCED_FACE ( 'NONE', ( #110 ), #105, .T. ) ;
#32 = ORIENTED_EDGE ( 'NONE', *, *, #133, .F. ) ;
#33 = SURFACE_SIDE_STYLE ('',( #109 ) ) ;
#34 = CARTESIAN_POINT ( 'NONE',  ( 6.938893903907228400E-015, 0.0000000000000000000, 29.71799999999999600 ) ) ;
#35 = DIRECTION ( 'NONE',  ( 0.0000000000000000000, 0.0000000000000000000, -1.000000000000000000 ) ) ;
#36 = MANIFOLD_SOLID_BREP ( 'Revolve1', #122 ) ;
#37 = EDGE_LOOP ( 'NONE', ( #144, #121 ) ) ;
#38 =( LENGTH_UNIT ( ) NAMED_UNIT ( * ) SI_UNIT ( .MILLI., .METRE. ) );
#39 = DIRECTION ( 'NONE',  ( -1.000000000000000000, 0.0000000000000000000, 0.0000000000000000000 ) ) ;
#40 = FILL_AREA_STYLE_COLOUR ( '', #108 ) ;
#41 = SURFACE_STYLE_USAGE ( .BOTH. , #33 ) ;
#42 = DIRECTION ( 'NONE',  ( 1.000000000000000000, 0.0000000000000000000, 0.0000000000000000000 ) ) ;
#43 = VECTOR ( 'NONE', #11, 1000.000000000000000 ) ;
#44 = LINE ( 'NONE', #20, #43 ) ;
#45 = DIRECTION ( 'NONE',  ( -1.000000000000000000, 0.0000000000000000000, 0.0000000000000000000 ) ) ;
#46 = PRODUCT_DEFINITION_CONTEXT ( 'detailed design', #64, 'design' ) ;
#47 = DIRECTION ( 'NONE',  ( 0.0000000000000000000, 0.0000000000000000000, -1.000000000000000000 ) ) ;
#48 =( NAMED_UNIT ( * ) SI_UNIT ( $, .STERADIAN. ) SOLID_ANGLE_UNIT ( ) );
#49 = DIRECTION ( 'NONE',  ( 1.000000000000000000, 0.0000000000000000000, 0.0000000000000000000 ) ) ;
#50 = PLANE ( 'NONE',  #186 ) ;
#51 = EDGE_CURVE ( 'NONE', #141, #118, #94, .T. ) ;
#52 = EDGE_CURVE ( 'NONE', #136, #201, #199, .T. ) ;
#53 = LINE ( 'NONE', #89, #61 ) ;
#54 = CIRCLE ( 'NONE', #169, 5.588000000000000100 ) ;
#55 = DIRECTION ( 'NONE',  ( -1.000000000000000000, 0.0000000000000000000, 0.0000000000000000000 ) ) ;
#56 = CIRCLE ( 'NONE', #170, 5.588000000000000100 ) ;
#57 = CARTESIAN_POINT ( 'NONE',  ( 6.938893903907228400E-015, 0.0000000000000000000, 0.0000000000000000000 ) ) ;
#58 = VECTOR ( 'NONE', #35, 1000.000000000000000 ) ;
#59 = DIRECTION ( 'NONE',  ( -1.000000000000000000, 0.0000000000000000000, 0.0000000000000000000 ) ) ;
#60 = CARTESIAN_POINT ( 'NONE',  ( 6.938893903907228400E-015, 0.0000000000000000000, 29.71799999999999600 ) ) ;
#61 = VECTOR ( 'NONE', #62, 1000.000000000000000 ) ;
#62 = DIRECTION ( 'NONE',  ( 0.0000000000000000000, 0.0000000000000000000, -1.000000000000000000 ) ) ;
#63 = APPLICATION_PROTOCOL_DEFINITION ( 'draft international standard', 'automotive_design', 1998, #71 ) ;
#64 = APPLICATION_CONTEXT ( 'automotive_design' ) ;
#65 = DIRECTION ( 'NONE',  ( 0.0000000000000000000, 0.0000000000000000000, -1.000000000000000000 ) ) ;
#66 = DIRECTION ( 'NONE',  ( -1.000000000000000000, 0.0000000000000000000, 0.0000000000000000000 ) ) ;
#67 = DIRECTION ( 'NONE',  ( 0.0000000000000000000, 0.0000000000000000000, -1.000000000000000000 ) ) ;
#68 = CYLINDRICAL_SURFACE ( 'NONE', #173, 6.349999999999997900 ) ;
#69 = CIRCLE ( 'NONE', #176, 6.349999999999997900 ) ;
#70 = CARTESIAN_POINT ( 'NONE',  ( 5.588000000000007200, 6.843326313635409900E-016, 29.71799999999999600 ) ) ;
#71 = APPLICATION_CONTEXT ( 'automotive_design' ) ;
#72 = CARTESIAN_POINT ( 'NONE',  ( 6.938893903907228400E-015, 0.0000000000000000000, 29.71799999999999600 ) ) ;
#73 = ADVANCED_FACE ( 'NONE', ( #106, #93 ), #50, .T. ) ;
#74 = LINE ( 'NONE', #70, #58 ) ;
#75 = DIRECTION ( 'NONE',  ( 0.0000000000000000000, 0.0000000000000000000, -1.000000000000000000 ) ) ;
#76 = CIRCLE ( 'NONE', #179, 6.349999999999997900 ) ;
#77 = PRODUCT_DEFINITION_SHAPE ( 'NONE', 'NONE',  #154 ) ;
#78 = CIRCLE ( 'NONE', #172, 5.588000000000000100 ) ;
#79 = FACE_BOUND ( 'NONE', #37, .T. ) ;
#80 = CYLINDRICAL_SURFACE ( 'NONE', #183, 5.588000000000000100 ) ;
#81 = CARTESIAN_POINT ( 'NONE',  ( 5.588000000000007200, 0.0000000000000000000, 0.0000000000000000000 ) ) ;
#82 = DIRECTION ( 'NONE',  ( 0.0000000000000000000, 0.0000000000000000000, -1.000000000000000000 ) ) ;
#83 = CIRCLE ( 'NONE', #185, 5.588000000000000100 ) ;
#84 = CARTESIAN_POINT ( 'NONE',  ( 6.350000000000005000, 0.0000000000000000000, 29.71799999999999600 ) ) ;
#85 = CARTESIAN_POINT ( 'NONE',  ( -5.587999999999993000, 0.0000000000000000000, 0.0000000000000000000 ) ) ;
#86 = FACE_OUTER_BOUND ( 'NONE', #134, .T. ) ;
#87 = FACE_OUTER_BOUND ( 'NONE', #166, .T. ) ;
#88 = CIRCLE ( 'NONE', #188, 6.349999999999997900 ) ;
#89 = CARTESIAN_POINT ( 'NONE',  ( -6.349999999999990800, 0.0000000000000000000, 29.71799999999999600 ) ) ;
#90 = SURFACE_SIDE_STYLE ('',( #26 ) ) ;
#91 = FACE_OUTER_BOUND ( 'NONE', #123, .T. ) ;
#92 = VECTOR ( 'NONE', #67, 1000.000000000000000 ) ;
#93 = FACE_BOUND ( 'NONE', #130, .T. ) ;
#94 = CIRCLE ( 'NONE', #198, 6.349999999999997900 ) ;
#95 = CARTESIAN_POINT ( 'NONE',  ( -6.349999999999990800, 0.0000000000000000000, 29.71799999999999600 ) ) ;
#96 = CARTESIAN_POINT ( 'NONE',  ( -5.587999999999993000, 0.0000000000000000000, 29.71799999999999600 ) ) ;
#97 = CARTESIAN_POINT ( 'NONE',  ( 5.588000000000007200, 6.843326313635409900E-016, 29.71799999999999600 ) ) ;
#98 = ADVANCED_FACE ( 'NONE', ( #91 ), #80, .F. ) ;
#99 = DIRECTION ( 'NONE',  ( -1.000000000000000000, 0.0000000000000000000, 0.0000000000000000000 ) ) ;
#100 =( NAMED_UNIT ( * ) PLANE_ANGLE_UNIT ( ) SI_UNIT ( $, .RADIAN. ) );
#101 = ORIENTED_EDGE ( 'NONE', *, *, #204, .T. ) ;
#102 =( NAMED_UNIT ( * ) SI_UNIT ( $, .STERADIAN. ) SOLID_ANGLE_UNIT ( ) );
#103 = EDGE_CURVE ( 'NONE', #136, #116, #83, .T. ) ;
#104 = PRESENTATION_STYLE_ASSIGNMENT (( #41 ) ) ;
#105 = CYLINDRICAL_SURFACE ( 'NONE', #194, 6.349999999999997900 ) ;
#106 = FACE_OUTER_BOUND ( 'NONE', #175, .T. ) ;
#107 = CYLINDRICAL_SURFACE ( 'NONE', #196, 5.588000000000000100 ) ;
#108 = COLOUR_RGB ( '',0.6470588235294118000, 0.5176470588235293500, 0.0000000000000000000 ) ;
#109 = SURFACE_STYLE_FILL_AREA ( #187 ) ;
#110 = FACE_OUTER_BOUND ( 'NONE', #129, .T. ) ;
#111 = FACE_OUTER_BOUND ( 'NONE', #195, .T. ) ;
#112 = ORIENTED_EDGE ( 'NONE', *, *, #207, .F. ) ;
#113 =( LENGTH_UNIT ( ) NAMED_UNIT ( * ) SI_UNIT ( .MILLI., .METRE. ) );
#114 = CARTESIAN_POINT ( 'NONE',  ( 6.350000000000005000, 7.776507174585690200E-016, 29.71799999999999600 ) ) ;
#115 = DIRECTION ( 'NONE',  ( -1.000000000000000000, 0.0000000000000000000, 0.0000000000000000000 ) ) ;
#116 = VERTEX_POINT ( 'NONE', #97 ) ;
#117 = CARTESIAN_POINT ( 'NONE',  ( 5.588000000000007200, 6.843326313635409900E-016, 0.0000000000000000000 ) ) ;
#118 = VERTEX_POINT ( 'NONE', #114 ) ;
#119 = UNCERTAINTY_MEASURE_WITH_UNIT (LENGTH_MEASURE( 1.000000000000000100E-005 ), #113, 'distance_accuracy_value', 'NONE');
#120 = CARTESIAN_POINT ( 'NONE',  ( 6.938893903907228400E-015, 0.0000000000000000000, 29.71799999999999600 ) ) ;
#121 = ORIENTED_EDGE ( 'NONE', *, *, #208, .T. ) ;
#122 = CLOSED_SHELL ( 'NONE', ( #98, #31, #73, #193, #184, #2 ) ) ;
#123 = EDGE_LOOP ( 'NONE', ( #124, #101, #157, #135 ) ) ;
#124 = ORIENTED_EDGE ( 'NONE', *, *, #208, .F. ) ;
#125 = DIRECTION ( 'NONE',  ( 0.0000000000000000000, 0.0000000000000000000, -1.000000000000000000 ) ) ;
#126 = UNCERTAINTY_MEASURE_WITH_UNIT (LENGTH_MEASURE( 1.000000000000000100E-005 ), #21, 'distance_accuracy_value', 'NONE');
#127 = DIRECTION ( 'NONE',  ( 0.0000000000000000000, 0.0000000000000000000, -1.000000000000000000 ) ) ;
#128 = DIRECTION ( 'NONE',  ( 0.0000000000000000000, 0.0000000000000000000, -1.000000000000000000 ) ) ;
#129 = EDGE_LOOP ( 'NONE', ( #146, #150, #149, #131 ) ) ;
#130 = EDGE_LOOP ( 'NONE', ( #143, #112 ) ) ;
#131 = ORIENTED_EDGE ( 'NONE', *, *, #213, .F. ) ;
#132 = CARTESIAN_POINT ( 'NONE',  ( 6.938893903907228400E-015, 0.0000000000000000000, 0.0000000000000000000 ) ) ;
#133 = EDGE_CURVE ( 'NONE', #164, #209, #88, .T. ) ;
#134 = EDGE_LOOP ( 'NONE', ( #214, #190 ) ) ;
#135 = ORIENTED_EDGE ( 'NONE', *, *, #52, .F. ) ;
#136 = VERTEX_POINT ( 'NONE', #96 ) ;
#137 = ORIENTED_EDGE ( 'NONE', *, *, #211, .F. ) ;
#138 = DIRECTION ( 'NONE',  ( -1.000000000000000000, 0.0000000000000000000, 0.0000000000000000000 ) ) ;
#139 = ORIENTED_EDGE ( 'NONE', *, *, #213, .T. ) ;
#140 = DIRECTION ( 'NONE',  ( 0.0000000000000000000, 0.0000000000000000000, -1.000000000000000000 ) ) ;
#141 = VERTEX_POINT ( 'NONE', #95 ) ;
#142 = ORIENTED_EDGE ( 'NONE', *, *, #103, .F. ) ;
#143 = ORIENTED_EDGE ( 'NONE', *, *, #206, .F. ) ;
#144 = ORIENTED_EDGE ( 'NONE', *, *, #103, .T. ) ;
#145 = VERTEX_POINT ( 'NONE', #117 ) ;
#146 = ORIENTED_EDGE ( 'NONE', *, *, #51, .T. ) ;
#147 =( NAMED_UNIT ( * ) SI_UNIT ( $, .STERADIAN. ) SOLID_ANGLE_UNIT ( ) );
#148 = PRODUCT_RELATED_PRODUCT_CATEGORY ( 'part', '', ( #174 ) ) ;
#149 = ORIENTED_EDGE ( 'NONE', *, *, #203, .F. ) ;
#150 = ORIENTED_EDGE ( 'NONE', *, *, #211, .T. ) ;
#151 = ORIENTED_EDGE ( 'NONE', *, *, #52, .T. ) ;
#152 = DIRECTION ( 'NONE',  ( 0.0000000000000000000, 0.0000000000000000000, -1.000000000000000000 ) ) ;
#153 = PRODUCT_DEFINITION_FORMATION_WITH_SPECIFIED_SOURCE ( 'ANY', '', #174, .NOT_KNOWN. ) ;
#154 = PRODUCT_DEFINITION ( 'UNKNOWN', '', #153, #46 ) ;
#155 = AXIS2_PLACEMENT_3D ( 'NONE', #7, #182, #49 ) ;
#156 = ORIENTED_EDGE ( 'NONE', *, *, #206, .T. ) ;
#157 = ORIENTED_EDGE ( 'NONE', *, *, #207, .T. ) ;
#158 = ORIENTED_EDGE ( 'NONE', *, *, #133, .T. ) ;
#159 =( GEOMETRIC_REPRESENTATION_CONTEXT ( 3 ) GLOBAL_UNCERTAINTY_ASSIGNED_CONTEXT ( ( #119 ) ) GLOBAL_UNIT_ASSIGNED_CONTEXT ( ( #113, #30, #147 ) ) REPRESENTATION_CONTEXT ( 'NONE', 'WORKASPACE' ) );
#160 = ORIENTED_EDGE ( 'NONE', *, *, #203, .T. ) ;
#161 = CARTESIAN_POINT ( 'NONE',  ( -5.587999999999993000, 0.0000000000000000000, 29.71799999999999600 ) ) ;
#162 = MECHANICAL_DESIGN_GEOMETRIC_PRESENTATION_REPRESENTATION (  '', ( #165 ), #159 ) ;
#163 = PRESENTATION_LAYER_ASSIGNMENT (  '', '', ( #165 ) ) ;
#164 = VERTEX_POINT ( 'NONE', #181 ) ;
#165 = STYLED_ITEM ( 'NONE', ( #25 ), #15 ) ;
#166 = EDGE_LOOP ( 'NONE', ( #137, #168, #139, #32 ) ) ;
#167 =( GEOMETRIC_REPRESENTATION_CONTEXT ( 3 ) GLOBAL_UNCERTAINTY_ASSIGNED_CONTEXT ( ( #23 ) ) GLOBAL_UNIT_ASSIGNED_CONTEXT ( ( #38, #180, #48 ) ) REPRESENTATION_CONTEXT ( 'NONE', 'WORKASPACE' ) );
#168 = ORIENTED_EDGE ( 'NONE', *, *, #200, .T. ) ;
#169 = AXIS2_PLACEMENT_3D ( 'NONE', #178, #47, #210 ) ;
#170 = AXIS2_PLACEMENT_3D ( 'NONE', #10, #6, #29 ) ;
#171 = PLANE ( 'NONE',  #177 ) ;
#172 = AXIS2_PLACEMENT_3D ( 'NONE', #132, #127, #3 ) ;
#173 = AXIS2_PLACEMENT_3D ( 'NONE', #202, #140, #59 ) ;
#174 = PRODUCT ( 'am-0333 AMS Brass Tube', 'am-0333 AMS Brass Tube', '', ( #1 ) ) ;
#175 = EDGE_LOOP ( 'NONE', ( #160, #158 ) ) ;
#176 = AXIS2_PLACEMENT_3D ( 'NONE', #60, #17, #138 ) ;
#177 = AXIS2_PLACEMENT_3D ( 'NONE', #84, #9, #42 ) ;
#178 = CARTESIAN_POINT ( 'NONE',  ( 6.938893903907228400E-015, 0.0000000000000000000, 29.71799999999999600 ) ) ;
#179 = AXIS2_PLACEMENT_3D ( 'NONE', #57, #82, #24 ) ;
#180 =( NAMED_UNIT ( * ) PLANE_ANGLE_UNIT ( ) SI_UNIT ( $, .RADIAN. ) );
#181 = CARTESIAN_POINT ( 'NONE',  ( 6.350000000000005000, 7.776507174585690200E-016, 0.0000000000000000000 ) ) ;
#182 = DIRECTION ( 'NONE',  ( 0.0000000000000000000, 0.0000000000000000000, 1.000000000000000000 ) ) ;
#183 = AXIS2_PLACEMENT_3D ( 'NONE', #22, #16, #99 ) ;
#184 = ADVANCED_FACE ( 'NONE', ( #79, #86 ), #171, .T. ) ;
#185 = AXIS2_PLACEMENT_3D ( 'NONE', #120, #152, #115 ) ;
#186 = AXIS2_PLACEMENT_3D ( 'NONE', #81, #125, #14 ) ;
#187 = FILL_AREA_STYLE ('',( #40 ) ) ;
#188 = AXIS2_PLACEMENT_3D ( 'NONE', #5, #205, #45 ) ;
#189 =( GEOMETRIC_REPRESENTATION_CONTEXT ( 3 ) GLOBAL_UNCERTAINTY_ASSIGNED_CONTEXT ( ( #126 ) ) GLOBAL_UNIT_ASSIGNED_CONTEXT ( ( #21, #100, #102 ) ) REPRESENTATION_CONTEXT ( 'NONE', 'WORKASPACE' ) );
#190 = ORIENTED_EDGE ( 'NONE', *, *, #200, .F. ) ;
#191 = MECHANICAL_DESIGN_GEOMETRIC_PRESENTATION_REPRESENTATION (  '', ( #197 ), #189 ) ;
#192 = PRESENTATION_LAYER_ASSIGNMENT (  '', '', ( #197 ) ) ;
#193 = ADVANCED_FACE ( 'NONE', ( #87 ), #68, .T. ) ;
#194 = AXIS2_PLACEMENT_3D ( 'NONE', #72, #75, #66 ) ;
#195 = EDGE_LOOP ( 'NONE', ( #212, #142, #151, #156 ) ) ;
#196 = AXIS2_PLACEMENT_3D ( 'NONE', #13, #65, #39 ) ;
#197 = STYLED_ITEM ( 'NONE', ( #104 ), #36 ) ;
#198 = AXIS2_PLACEMENT_3D ( 'NONE', #34, #128, #55 ) ;
#199 = LINE ( 'NONE', #161, #92 ) ;
#200 = EDGE_CURVE ( 'NONE', #118, #141, #69, .T. ) ;
#201 = VERTEX_POINT ( 'NONE', #85 ) ;
#202 = CARTESIAN_POINT ( 'NONE',  ( 6.938893903907228400E-015, 0.0000000000000000000, 29.71799999999999600 ) ) ;
#203 = EDGE_CURVE ( 'NONE', #209, #164, #76, .T. ) ;
#204 = EDGE_CURVE ( 'NONE', #116, #145, #74, .T. ) ;
#205 = DIRECTION ( 'NONE',  ( 0.0000000000000000000, 0.0000000000000000000, -1.000000000000000000 ) ) ;
#206 = EDGE_CURVE ( 'NONE', #201, #145, #78, .T. ) ;
#207 = EDGE_CURVE ( 'NONE', #145, #201, #56, .T. ) ;
#208 = EDGE_CURVE ( 'NONE', #116, #136, #54, .T. ) ;
#209 = VERTEX_POINT ( 'NONE', #4 ) ;
#210 = DIRECTION ( 'NONE',  ( -1.000000000000000000, 0.0000000000000000000, 0.0000000000000000000 ) ) ;
#211 = EDGE_CURVE ( 'NONE', #118, #164, #44, .T. ) ;
#212 = ORIENTED_EDGE ( 'NONE', *, *, #204, .F. ) ;
#213 = EDGE_CURVE ( 'NONE', #141, #209, #53, .T. ) ;
#214 = ORIENTED_EDGE ( 'NONE', *, *, #51, .F. ) ;
ENDSEC;
END-ISO-10303-21;
