ISO-10303-21;
HEADER;
FILE_DESCRIPTION (( 'STEP AP214' ),
    '1' );
FILE_NAME ('am-0253 0.5'''' id, 0.5'''' Long Bushing.STEP',
    '2014-08-20T20:51:55',
    ( '' ),
    ( '' ),
    'SwSTEP 2.0',
    'SolidWorks 2014',
    '' );
FILE_SCHEMA (( 'AUTOMOTIVE_DESIGN' ));
ENDSEC;

DATA;
#1 = DIRECTION ( 'NONE',  ( 0.0000000000000000000, 1.000000000000000000, 0.0000000000000000000 ) ) ;
#2 = PRODUCT ( 'am-0253 0.5'''''''' id, 0.5'''''''' Long Bushing', 'am-0253 0.5'''''''' id, 0.5'''''''' Long Bushing', '', ( #63 ) ) ;
#3 = APPLICATION_CONTEXT ( 'automotive_design' ) ;
#4 = DIRECTION ( 'NONE',  ( 0.0000000000000000000, -0.0000000000000000000, 1.000000000000000000 ) ) ;
#5 = DIRECTION ( 'NONE',  ( 0.0000000000000000000, 0.0000000000000000000, 1.000000000000000000 ) ) ;
#6 = SURFACE_SIDE_STYLE ('',( #119 ) ) ;
#7 = UNCERTAINTY_MEASURE_WITH_UNIT (LENGTH_MEASURE( 1.000000000000000100E-005 ), #99, 'distance_accuracy_value', 'NONE');
#8 = EDGE_CURVE ( 'NONE', #198, #199, #171, .T. ) ;
#9 = EDGE_CURVE ( 'NONE', #173, #199, #223, .T. ) ;
#10 = DIRECTION ( 'NONE',  ( 0.0000000000000000000, 0.0000000000000000000, -1.000000000000000000 ) ) ;
#11 = CARTESIAN_POINT ( 'NONE',  ( 3.661693929450585400E-017, 0.5000000000000000000, 0.2989999999999999900 ) ) ;
#12 = CARTESIAN_POINT ( 'NONE',  ( 0.0000000000000000000, 0.0000000000000000000, 0.0000000000000000000 ) ) ;
#13 =( LENGTH_UNIT ( ) NAMED_UNIT ( * ) SI_UNIT ( $, .METRE. ) );
#14 = CARTESIAN_POINT ( 'NONE',  ( 0.0000000000000000000, 0.5000000000000000000, -0.2500000000000000000 ) ) ;
#15 = FILL_AREA_STYLE ('',( #112 ) ) ;
#16 = ADVANCED_BREP_SHAPE_REPRESENTATION ( 'am-0253 0.5'''''''' id, 0.5'''''''' Long Bushing', ( #40, #57 ), #74 ) ;
#17 =( CONVERSION_BASED_UNIT ( 'INCH', #127 ) LENGTH_UNIT ( ) NAMED_UNIT ( #20 ) );
#18 = DIRECTION ( 'NONE',  ( 0.0000000000000000000, 1.000000000000000000, 0.0000000000000000000 ) ) ;
#19 = DIMENSIONAL_EXPONENTS ( 1.000000000000000000, 0.0000000000000000000, 0.0000000000000000000, 0.0000000000000000000, 0.0000000000000000000, 0.0000000000000000000, 0.0000000000000000000 ) ;
#20 = DIMENSIONAL_EXPONENTS ( 1.000000000000000000, 0.0000000000000000000, 0.0000000000000000000, 0.0000000000000000000, 0.0000000000000000000, 0.0000000000000000000, 0.0000000000000000000 ) ;
#21 =( NAMED_UNIT ( * ) PLANE_ANGLE_UNIT ( ) SI_UNIT ( $, .RADIAN. ) );
#22 = DIRECTION ( 'NONE',  ( 0.0000000000000000000, 1.000000000000000000, 0.0000000000000000000 ) ) ;
#23 = DIRECTION ( 'NONE',  ( 0.0000000000000000000, 1.000000000000000000, 0.0000000000000000000 ) ) ;
#24 = PLANE ( 'NONE',  #89 ) ;
#25 = ADVANCED_FACE ( 'NONE', ( #172, #170 ), #191, .T. ) ;
#26 = SURFACE_STYLE_USAGE ( .BOTH. , #107 ) ;
#27 =( NAMED_UNIT ( * ) SI_UNIT ( $, .STERADIAN. ) SOLID_ANGLE_UNIT ( ) );
#28 = CARTESIAN_POINT ( 'NONE',  ( 0.0000000000000000000, 0.0000000000000000000, 0.0000000000000000000 ) ) ;
#29 = DIRECTION ( 'NONE',  ( 0.0000000000000000000, 0.0000000000000000000, -1.000000000000000000 ) ) ;
#30 = CARTESIAN_POINT ( 'NONE',  ( 3.061616997868383000E-017, 0.5000000000000000000, 0.2500000000000000000 ) ) ;
#31 = DIRECTION ( 'NONE',  ( 0.0000000000000000000, 0.0000000000000000000, 1.000000000000000000 ) ) ;
#32 = DIRECTION ( 'NONE',  ( 0.0000000000000000000, 1.000000000000000000, 0.0000000000000000000 ) ) ;
#33 = ADVANCED_FACE ( 'NONE', ( #168 ), #162, .T. ) ;
#34 = ADVANCED_FACE ( 'NONE', ( #165 ), #160, .F. ) ;
#35 = ADVANCED_FACE ( 'NONE', ( #163 ), #157, .T. ) ;
#36 = DIRECTION ( 'NONE',  ( 0.0000000000000000000, 1.000000000000000000, 0.0000000000000000000 ) ) ;
#37 =( CONVERSION_BASED_UNIT ( 'INCH', #151 ) LENGTH_UNIT ( ) NAMED_UNIT ( #101 ) );
#38 = APPLICATION_PROTOCOL_DEFINITION ( 'draft international standard', 'automotive_design', 1998, #49 ) ;
#39 = CARTESIAN_POINT ( 'NONE',  ( 0.0000000000000000000, 0.5000000000000000000, -0.2989999999999999900 ) ) ;
#40 = MANIFOLD_SOLID_BREP ( 'Boss-Extrude1', #218 ) ;
#41 = DIRECTION ( 'NONE',  ( 0.0000000000000000000, 0.0000000000000000000, -1.000000000000000000 ) ) ;
#42 = DIRECTION ( 'NONE',  ( -0.0000000000000000000, -1.000000000000000000, -0.0000000000000000000 ) ) ;
#43 = DIRECTION ( 'NONE',  ( 1.000000000000000000, 0.0000000000000000000, 0.0000000000000000000 ) ) ;
#44 = CARTESIAN_POINT ( 'NONE',  ( 3.061616997868383000E-017, 0.5000000000000000000, 0.2500000000000000000 ) ) ;
#45 = CARTESIAN_POINT ( 'NONE',  ( 0.0000000000000000000, 0.5000000000000000000, 0.0000000000000000000 ) ) ;
#46 = ADVANCED_FACE ( 'NONE', ( #167 ), #144, .F. ) ;
#47 = ADVANCED_FACE ( 'NONE', ( #159, #143 ), #24, .F. ) ;
#48 =( NAMED_UNIT ( * ) SI_UNIT ( $, .STERADIAN. ) SOLID_ANGLE_UNIT ( ) );
#49 = APPLICATION_CONTEXT ( 'automotive_design' ) ;
#50 = PRODUCT_RELATED_PRODUCT_CATEGORY ( 'part', '', ( #2 ) ) ;
#51 = PRODUCT_DEFINITION_FORMATION_WITH_SPECIFIED_SOURCE ( 'ANY', '', #2, .NOT_KNOWN. ) ;
#52 = PRODUCT_DEFINITION ( 'UNKNOWN', '', #51, #61 ) ;
#53 = CARTESIAN_POINT ( 'NONE',  ( 0.0000000000000000000, 0.5000000000000000000, 0.0000000000000000000 ) ) ;
#54 = PRODUCT_DEFINITION_SHAPE ( 'NONE', 'NONE',  #52 ) ;
#55 = CARTESIAN_POINT ( 'NONE',  ( 0.0000000000000000000, 0.0000000000000000000, 0.0000000000000000000 ) ) ;
#56 = DIRECTION ( 'NONE',  ( -0.0000000000000000000, -1.000000000000000000, -0.0000000000000000000 ) ) ;
#57 = AXIS2_PLACEMENT_3D ( 'NONE', #150, #154, #43 ) ;
#58 = DIRECTION ( 'NONE',  ( 0.0000000000000000000, 0.0000000000000000000, 1.000000000000000000 ) ) ;
#59 = EDGE_CURVE ( 'NONE', #173, #178, #146, .T. ) ;
#60 = CARTESIAN_POINT ( 'NONE',  ( 0.0000000000000000000, 0.5000000000000000000, 0.0000000000000000000 ) ) ;
#61 = PRODUCT_DEFINITION_CONTEXT ( 'detailed design', #3, 'design' ) ;
#62 =( GEOMETRIC_REPRESENTATION_CONTEXT ( 3 ) GLOBAL_UNCERTAINTY_ASSIGNED_CONTEXT ( ( #7 ) ) GLOBAL_UNIT_ASSIGNED_CONTEXT ( ( #99, #21, #121 ) ) REPRESENTATION_CONTEXT ( 'NONE', 'WORKASPACE' ) );
#63 = PRODUCT_CONTEXT ( 'NONE', #49, 'mechanical' ) ;
#64 = DIRECTION ( 'NONE',  ( -0.0000000000000000000, -1.000000000000000000, -0.0000000000000000000 ) ) ;
#65 = MECHANICAL_DESIGN_GEOMETRIC_PRESENTATION_REPRESENTATION (  '', ( #69 ), #62 ) ;
#66 = PRESENTATION_LAYER_ASSIGNMENT (  '', '', ( #69 ) ) ;
#67 = DIRECTION ( 'NONE',  ( -0.0000000000000000000, -1.000000000000000000, -0.0000000000000000000 ) ) ;
#68 = DIRECTION ( 'NONE',  ( 0.0000000000000000000, 1.000000000000000000, 0.0000000000000000000 ) ) ;
#69 = STYLED_ITEM ( 'NONE', ( #118 ), #16 ) ;
#70 = DIRECTION ( 'NONE',  ( 0.0000000000000000000, 0.0000000000000000000, 1.000000000000000000 ) ) ;
#71 = FILL_AREA_STYLE ('',( #77 ) ) ;
#72 = UNCERTAINTY_MEASURE_WITH_UNIT (LENGTH_MEASURE( 1.000000000000000100E-005 ), #37, 'distance_accuracy_value', 'NONE');
#73 = DIRECTION ( 'NONE',  ( 0.0000000000000000000, 1.000000000000000000, 0.0000000000000000000 ) ) ;
#74 =( GEOMETRIC_REPRESENTATION_CONTEXT ( 3 ) GLOBAL_UNCERTAINTY_ASSIGNED_CONTEXT ( ( #110 ) ) GLOBAL_UNIT_ASSIGNED_CONTEXT ( ( #17, #108, #27 ) ) REPRESENTATION_CONTEXT ( 'NONE', 'WORKASPACE' ) );
#75 = AXIS2_PLACEMENT_3D ( 'NONE', #12, #73, #5 ) ;
#76 = AXIS2_PLACEMENT_3D ( 'NONE', #55, #1, #70 ) ;
#77 = FILL_AREA_STYLE_COLOUR ( '', #120 ) ;
#78 = AXIS2_PLACEMENT_3D ( 'NONE', #90, #215, #31 ) ;
#79 = APPLICATION_PROTOCOL_DEFINITION ( 'draft international standard', 'automotive_design', 1998, #3 ) ;
#80 = AXIS2_PLACEMENT_3D ( 'NONE', #122, #32, #156 ) ;
#81 = AXIS2_PLACEMENT_3D ( 'NONE', #102, #22, #124 ) ;
#82 = AXIS2_PLACEMENT_3D ( 'NONE', #45, #212, #58 ) ;
#83 = DIRECTION ( 'NONE',  ( -0.0000000000000000000, -1.000000000000000000, -0.0000000000000000000 ) ) ;
#84 = CARTESIAN_POINT ( 'NONE',  ( 0.0000000000000000000, 0.5000000000000000000, 0.0000000000000000000 ) ) ;
#85 = CARTESIAN_POINT ( 'NONE',  ( 3.661693929450585400E-017, 0.0000000000000000000, 0.2989999999999999900 ) ) ;
#86 = CARTESIAN_POINT ( 'NONE',  ( 0.0000000000000000000, 0.5000000000000000000, -0.2500000000000000000 ) ) ;
#87 = SURFACE_STYLE_USAGE ( .BOTH. , #6 ) ;
#88 = DIRECTION ( 'NONE',  ( -0.0000000000000000000, -1.000000000000000000, -0.0000000000000000000 ) ) ;
#89 = AXIS2_PLACEMENT_3D ( 'NONE', #91, #36, #166 ) ;
#90 = CARTESIAN_POINT ( 'NONE',  ( 0.0000000000000000000, 0.5000000000000000000, 0.0000000000000000000 ) ) ;
#91 = CARTESIAN_POINT ( 'NONE',  ( 0.0000000000000000000, 0.0000000000000000000, 0.0000000000000000000 ) ) ;
#92 = AXIS2_PLACEMENT_3D ( 'NONE', #60, #83, #10 ) ;
#93 =( LENGTH_UNIT ( ) NAMED_UNIT ( * ) SI_UNIT ( $, .METRE. ) );
#94 =( GEOMETRIC_REPRESENTATION_CONTEXT ( 3 ) GLOBAL_UNCERTAINTY_ASSIGNED_CONTEXT ( ( #72 ) ) GLOBAL_UNIT_ASSIGNED_CONTEXT ( ( #37, #174, #48 ) ) REPRESENTATION_CONTEXT ( 'NONE', 'WORKASPACE' ) );
#95 = MECHANICAL_DESIGN_GEOMETRIC_PRESENTATION_REPRESENTATION (  '', ( #98 ), #94 ) ;
#96 = PRESENTATION_LAYER_ASSIGNMENT (  '', '', ( #98 ) ) ;
#97 = CARTESIAN_POINT ( 'NONE',  ( 0.0000000000000000000, 0.0000000000000000000, -0.2500000000000000000 ) ) ;
#98 = STYLED_ITEM ( 'NONE', ( #153 ), #40 ) ;
#99 =( CONVERSION_BASED_UNIT ( 'INCH', #115 ) LENGTH_UNIT ( ) NAMED_UNIT ( #19 ) );
#100 = AXIS2_PLACEMENT_3D ( 'NONE', #53, #67, #41 ) ;
#101 = DIMENSIONAL_EXPONENTS ( 1.000000000000000000, 0.0000000000000000000, 0.0000000000000000000, 0.0000000000000000000, 0.0000000000000000000, 0.0000000000000000000, 0.0000000000000000000 ) ;
#102 = CARTESIAN_POINT ( 'NONE',  ( 0.0000000000000000000, 0.0000000000000000000, 0.0000000000000000000 ) ) ;
#103 = AXIS2_PLACEMENT_3D ( 'NONE', #114, #148, #189 ) ;
#104 = CARTESIAN_POINT ( 'NONE',  ( 0.0000000000000000000, 0.5000000000000000000, 0.0000000000000000000 ) ) ;
#105 = AXIS2_PLACEMENT_3D ( 'NONE', #84, #42, #29 ) ;
#106 = AXIS2_PLACEMENT_3D ( 'NONE', #104, #23, #126 ) ;
#107 = SURFACE_SIDE_STYLE ('',( #155 ) ) ;
#108 =( NAMED_UNIT ( * ) PLANE_ANGLE_UNIT ( ) SI_UNIT ( $, .RADIAN. ) );
#109 = AXIS2_PLACEMENT_3D ( 'NONE', #221, #68, #4 ) ;
#110 = UNCERTAINTY_MEASURE_WITH_UNIT (LENGTH_MEASURE( 1.000000000000000100E-005 ), #17, 'distance_accuracy_value', 'NONE');
#111 = SHAPE_DEFINITION_REPRESENTATION ( #54, #16 ) ;
#112 = FILL_AREA_STYLE_COLOUR ( '', #161 ) ;
#113 = EDGE_CURVE ( 'NONE', #202, #175, #164, .T. ) ;
#114 = CARTESIAN_POINT ( 'NONE',  ( 0.0000000000000000000, 0.5000000000000000000, 0.0000000000000000000 ) ) ;
#115 = LENGTH_MEASURE_WITH_UNIT ( LENGTH_MEASURE( 0.02539999999999999900 ), #13 );
#116 = CARTESIAN_POINT ( 'NONE',  ( 0.0000000000000000000, 0.0000000000000000000, -0.2989999999999999900 ) ) ;
#117 = AXIS2_PLACEMENT_3D ( 'NONE', #28, #18, #149 ) ;
#118 = PRESENTATION_STYLE_ASSIGNMENT (( #87 ) ) ;
#119 = SURFACE_STYLE_FILL_AREA ( #71 ) ;
#120 = COLOUR_RGB ( '',0.7803921568627451000, 0.7607843137254901600, 0.7411764705882353300 ) ;
#121 =( NAMED_UNIT ( * ) SI_UNIT ( $, .STERADIAN. ) SOLID_ANGLE_UNIT ( ) );
#122 = CARTESIAN_POINT ( 'NONE',  ( 0.0000000000000000000, 0.5000000000000000000, 0.0000000000000000000 ) ) ;
#123 = EDGE_CURVE ( 'NONE', #181, #179, #141, .T. ) ;
#124 = DIRECTION ( 'NONE',  ( 0.0000000000000000000, 0.0000000000000000000, 1.000000000000000000 ) ) ;
#125 = EDGE_CURVE ( 'NONE', #175, #181, #145, .T. ) ;
#126 = DIRECTION ( 'NONE',  ( 0.0000000000000000000, 0.0000000000000000000, 1.000000000000000000 ) ) ;
#127 = LENGTH_MEASURE_WITH_UNIT ( LENGTH_MEASURE( 0.02539999999999999900 ), #93 );
#128 = LINE ( 'NONE', #196, #129 ) ;
#129 = VECTOR ( 'NONE', #88, 39.37007874015748100 ) ;
#130 = EDGE_CURVE ( 'NONE', #175, #202, #139, .T. ) ;
#131 = CIRCLE ( 'NONE', #75, 0.2500000000000000000 ) ;
#132 = EDGE_CURVE ( 'NONE', #202, #179, #140, .T. ) ;
#133 = CIRCLE ( 'NONE', #76, 0.2989999999999999900 ) ;
#134 =( LENGTH_UNIT ( ) NAMED_UNIT ( * ) SI_UNIT ( $, .METRE. ) );
#135 = VECTOR ( 'NONE', #56, 39.37007874015748100 ) ;
#136 = CIRCLE ( 'NONE', #78, 0.2989999999999999900 ) ;
#137 = VECTOR ( 'NONE', #158, 39.37007874015748100 ) ;
#138 = EDGE_CURVE ( 'NONE', #178, #173, #136, .T. ) ;
#139 = CIRCLE ( 'NONE', #80, 0.2500000000000000000 ) ;
#140 = LINE ( 'NONE', #44, #135 ) ;
#141 = CIRCLE ( 'NONE', #81, 0.2500000000000000000 ) ;
#142 = EDGE_CURVE ( 'NONE', #199, #198, #133, .T. ) ;
#143 = FACE_BOUND ( 'NONE', #200, .T. ) ;
#144 = CYLINDRICAL_SURFACE ( 'NONE', #92, 0.2500000000000000000 ) ;
#145 = LINE ( 'NONE', #14, #137 ) ;
#146 = CIRCLE ( 'NONE', #106, 0.2989999999999999900 ) ;
#147 = EDGE_CURVE ( 'NONE', #179, #181, #131, .T. ) ;
#148 = DIRECTION ( 'NONE',  ( -0.0000000000000000000, -1.000000000000000000, -0.0000000000000000000 ) ) ;
#149 = DIRECTION ( 'NONE',  ( 0.0000000000000000000, 0.0000000000000000000, 1.000000000000000000 ) ) ;
#150 = CARTESIAN_POINT ( 'NONE',  ( 0.0000000000000000000, 0.0000000000000000000, 0.0000000000000000000 ) ) ;
#151 = LENGTH_MEASURE_WITH_UNIT ( LENGTH_MEASURE( 0.02539999999999999900 ), #134 );
#152 = CARTESIAN_POINT ( 'NONE',  ( 0.0000000000000000000, 0.5000000000000000000, -0.2989999999999999900 ) ) ;
#153 = PRESENTATION_STYLE_ASSIGNMENT (( #26 ) ) ;
#154 = DIRECTION ( 'NONE',  ( 0.0000000000000000000, 0.0000000000000000000, 1.000000000000000000 ) ) ;
#155 = SURFACE_STYLE_FILL_AREA ( #15 ) ;
#156 = DIRECTION ( 'NONE',  ( 0.0000000000000000000, 0.0000000000000000000, 1.000000000000000000 ) ) ;
#157 = CYLINDRICAL_SURFACE ( 'NONE', #100, 0.2989999999999999900 ) ;
#158 = DIRECTION ( 'NONE',  ( -0.0000000000000000000, -1.000000000000000000, -0.0000000000000000000 ) ) ;
#159 = FACE_OUTER_BOUND ( 'NONE', #180, .T. ) ;
#160 = CYLINDRICAL_SURFACE ( 'NONE', #103, 0.2500000000000000000 ) ;
#161 = COLOUR_RGB ( '',0.7803921568627451000, 0.7607843137254901600, 0.7411764705882353300 ) ;
#162 = CYLINDRICAL_SURFACE ( 'NONE', #105, 0.2989999999999999900 ) ;
#163 = FACE_OUTER_BOUND ( 'NONE', #176, .T. ) ;
#164 = CIRCLE ( 'NONE', #82, 0.2500000000000000000 ) ;
#165 = FACE_OUTER_BOUND ( 'NONE', #216, .T. ) ;
#166 = DIRECTION ( 'NONE',  ( 0.0000000000000000000, -0.0000000000000000000, 1.000000000000000000 ) ) ;
#167 = FACE_OUTER_BOUND ( 'NONE', #177, .T. ) ;
#168 = FACE_OUTER_BOUND ( 'NONE', #220, .T. ) ;
#169 = VECTOR ( 'NONE', #64, 39.37007874015748100 ) ;
#170 = FACE_BOUND ( 'NONE', #182, .T. ) ;
#171 = CIRCLE ( 'NONE', #117, 0.2989999999999999900 ) ;
#172 = FACE_OUTER_BOUND ( 'NONE', #219, .T. ) ;
#173 = VERTEX_POINT ( 'NONE', #152 ) ;
#174 =( NAMED_UNIT ( * ) PLANE_ANGLE_UNIT ( ) SI_UNIT ( $, .RADIAN. ) );
#175 = VERTEX_POINT ( 'NONE', #86 ) ;
#176 = EDGE_LOOP ( 'NONE', ( #206, #207, #210, #208 ) ) ;
#177 = EDGE_LOOP ( 'NONE', ( #211, #213, #217, #214 ) ) ;
#178 = VERTEX_POINT ( 'NONE', #11 ) ;
#179 = VERTEX_POINT ( 'NONE', #203 ) ;
#180 = EDGE_LOOP ( 'NONE', ( #222, #201 ) ) ;
#181 = VERTEX_POINT ( 'NONE', #97 ) ;
#182 = EDGE_LOOP ( 'NONE', ( #190, #192 ) ) ;
#183 = ORIENTED_EDGE ( 'NONE', *, *, #138, .F. ) ;
#184 = ORIENTED_EDGE ( 'NONE', *, *, #209, .T. ) ;
#185 = ORIENTED_EDGE ( 'NONE', *, *, #8, .T. ) ;
#186 = ORIENTED_EDGE ( 'NONE', *, *, #9, .F. ) ;
#187 = ORIENTED_EDGE ( 'NONE', *, *, #59, .T. ) ;
#188 = ORIENTED_EDGE ( 'NONE', *, *, #138, .T. ) ;
#189 = DIRECTION ( 'NONE',  ( 0.0000000000000000000, 0.0000000000000000000, -1.000000000000000000 ) ) ;
#190 = ORIENTED_EDGE ( 'NONE', *, *, #130, .F. ) ;
#191 = PLANE ( 'NONE',  #109 ) ;
#192 = ORIENTED_EDGE ( 'NONE', *, *, #113, .F. ) ;
#193 = ORIENTED_EDGE ( 'NONE', *, *, #132, .T. ) ;
#194 = ORIENTED_EDGE ( 'NONE', *, *, #130, .T. ) ;
#195 = ORIENTED_EDGE ( 'NONE', *, *, #123, .F. ) ;
#196 = CARTESIAN_POINT ( 'NONE',  ( 3.661693929450585400E-017, 0.5000000000000000000, 0.2989999999999999900 ) ) ;
#197 = ORIENTED_EDGE ( 'NONE', *, *, #125, .F. ) ;
#198 = VERTEX_POINT ( 'NONE', #85 ) ;
#199 = VERTEX_POINT ( 'NONE', #116 ) ;
#200 = EDGE_LOOP ( 'NONE', ( #205, #204 ) ) ;
#201 = ORIENTED_EDGE ( 'NONE', *, *, #8, .F. ) ;
#202 = VERTEX_POINT ( 'NONE', #30 ) ;
#203 = CARTESIAN_POINT ( 'NONE',  ( 3.061616997868383000E-017, 0.0000000000000000000, 0.2500000000000000000 ) ) ;
#204 = ORIENTED_EDGE ( 'NONE', *, *, #147, .T. ) ;
#205 = ORIENTED_EDGE ( 'NONE', *, *, #123, .T. ) ;
#206 = ORIENTED_EDGE ( 'NONE', *, *, #209, .F. ) ;
#207 = ORIENTED_EDGE ( 'NONE', *, *, #59, .F. ) ;
#208 = ORIENTED_EDGE ( 'NONE', *, *, #142, .T. ) ;
#209 = EDGE_CURVE ( 'NONE', #178, #198, #128, .T. ) ;
#210 = ORIENTED_EDGE ( 'NONE', *, *, #9, .T. ) ;
#211 = ORIENTED_EDGE ( 'NONE', *, *, #132, .F. ) ;
#212 = DIRECTION ( 'NONE',  ( 0.0000000000000000000, 1.000000000000000000, 0.0000000000000000000 ) ) ;
#213 = ORIENTED_EDGE ( 'NONE', *, *, #113, .T. ) ;
#214 = ORIENTED_EDGE ( 'NONE', *, *, #147, .F. ) ;
#215 = DIRECTION ( 'NONE',  ( 0.0000000000000000000, 1.000000000000000000, 0.0000000000000000000 ) ) ;
#216 = EDGE_LOOP ( 'NONE', ( #194, #193, #195, #197 ) ) ;
#217 = ORIENTED_EDGE ( 'NONE', *, *, #125, .T. ) ;
#218 = CLOSED_SHELL ( 'NONE', ( #34, #33, #25, #47, #35, #46 ) ) ;
#219 = EDGE_LOOP ( 'NONE', ( #187, #188 ) ) ;
#220 = EDGE_LOOP ( 'NONE', ( #183, #184, #185, #186 ) ) ;
#221 = CARTESIAN_POINT ( 'NONE',  ( 0.0000000000000000000, 0.5000000000000000000, 0.0000000000000000000 ) ) ;
#222 = ORIENTED_EDGE ( 'NONE', *, *, #142, .F. ) ;
#223 = LINE ( 'NONE', #39, #169 ) ;
ENDSEC;
END-ISO-10303-21;
