ISO-10303-21;
HEADER;
FILE_DESCRIPTION (( 'STEP AP214' ),
    '1' );
FILE_NAME ('am-0209 0.375'''' id 1.125'''' od ball bearing (1614ZZ).STEP',
    '2014-08-20T20:43:57',
    ( '' ),
    ( '' ),
    'SwSTEP 2.0',
    'SolidWorks 2014',
    '' );
FILE_SCHEMA (( 'AUTOMOTIVE_DESIGN' ));
ENDSEC;

DATA;
#1 = EDGE_CURVE ( 'NONE', #262, #137, #271, .T. ) ;
#2 = AXIS2_PLACEMENT_3D ( 'NONE', #156, #7, #136 ) ;
#3 = AXIS2_PLACEMENT_3D ( 'NONE', #264, #233, #235 ) ;
#4 = AXIS2_PLACEMENT_3D ( 'NONE', #219, #215, #210 ) ;
#5 = DIRECTION ( 'NONE',  ( 0.0000000000000000000, 1.000000000000000000, 0.0000000000000000000 ) ) ;
#6 = DIRECTION ( 'NONE',  ( -0.0000000000000000000, -1.000000000000000000, -0.0000000000000000000 ) ) ;
#7 = DIRECTION ( 'NONE',  ( 0.0000000000000000000, 1.000000000000000000, 0.0000000000000000000 ) ) ;
#8 = EDGE_CURVE ( 'NONE', #167, #304, #193, .T. ) ;
#9 = CARTESIAN_POINT ( 'NONE',  ( 0.0000000000000000000, 0.0000000000000000000, 0.0000000000000000000 ) ) ;
#10 = DIRECTION ( 'NONE',  ( 1.224646799147346800E-016, 0.0000000000000000000, -1.000000000000000000 ) ) ;
#11 = DIRECTION ( 'NONE',  ( 1.000000000000000000, -0.0000000000000000000, 1.224646799147353200E-016 ) ) ;
#12 = AXIS2_PLACEMENT_3D ( 'NONE', #119, #138, #311 ) ;
#13 = CARTESIAN_POINT ( 'NONE',  ( 6.000769315822031000E-017, 0.5596941016011035600, -0.4900000000000000500 ) ) ;
#14 = SHAPE_DEFINITION_REPRESENTATION ( #104, #64 ) ;
#15 = AXIS2_PLACEMENT_3D ( 'NONE', #309, #133, #24 ) ;
#16 = AXIS2_PLACEMENT_3D ( 'NONE', #125, #124, #123 ) ;
#17 = ADVANCED_FACE ( 'NONE', ( #270 ), #261, .T. ) ;
#18 = COLOUR_RGB ( '',1.000000000000000000, 0.9490196078431372100, 0.9098039215686274400 ) ;
#19 = APPLICATION_PROTOCOL_DEFINITION ( 'draft international standard', 'automotive_design', 1998, #38 ) ;
#20 = EDGE_CURVE ( 'NONE', #265, #183, #257, .T. ) ;
#21 = ORIENTED_EDGE ( 'NONE', *, *, #203, .T. ) ;
#22 = CARTESIAN_POINT ( 'NONE',  ( 0.0000000000000000000, 0.2576941016011035600, -0.4900000000000000500 ) ) ;
#23 = CIRCLE ( 'NONE', #308, 0.4900000000000000500 ) ;
#24 = DIRECTION ( 'NONE',  ( 0.0000000000000000000, 0.0000000000000000000, -1.000000000000000000 ) ) ;
#25 = DIRECTION ( 'NONE',  ( -0.0000000000000000000, -1.000000000000000000, -0.0000000000000000000 ) ) ;
#26 = SURFACE_STYLE_FILL_AREA ( #90 ) ;
#27 = FILL_AREA_STYLE_COLOUR ( '', #18 ) ;
#28 = AXIS2_PLACEMENT_3D ( 'NONE', #162, #161, #159 ) ;
#29 =( GEOMETRIC_REPRESENTATION_CONTEXT ( 3 ) GLOBAL_UNCERTAINTY_ASSIGNED_CONTEXT ( ( #148 ) ) GLOBAL_UNIT_ASSIGNED_CONTEXT ( ( #107, #92, #70 ) ) REPRESENTATION_CONTEXT ( 'NONE', 'WORKASPACE' ) );
#30 = DIRECTION ( 'NONE',  ( 0.0000000000000000000, 0.0000000000000000000, -1.000000000000000000 ) ) ;
#31 = DIRECTION ( 'NONE',  ( 0.0000000000000000000, -1.000000000000000000, -0.0000000000000000000 ) ) ;
#32 = PRESENTATION_STYLE_ASSIGNMENT (( #110 ) ) ;
#33 = DIRECTION ( 'NONE',  ( 0.0000000000000000000, 0.0000000000000000000, -1.000000000000000000 ) ) ;
#34 = EDGE_CURVE ( 'NONE', #191, #167, #256, .T. ) ;
#35 = LENGTH_MEASURE_WITH_UNIT ( LENGTH_MEASURE( 0.02539999999999999900 ), #109 );
#36 = ADVANCED_FACE ( 'NONE', ( #246 ), #247, .T. ) ;
#37 = ORIENTED_EDGE ( 'NONE', *, *, #113, .F. ) ;
#38 = APPLICATION_CONTEXT ( 'automotive_design' ) ;
#39 = DIRECTION ( 'NONE',  ( 1.000000000000000000, 0.0000000000000000000, 0.0000000000000000000 ) ) ;
#40 = AXIS2_PLACEMENT_3D ( 'NONE', #322, #248, #217 ) ;
#41 = CARTESIAN_POINT ( 'NONE',  ( 0.0000000000000000000, 0.2576941016011035600, 0.0000000000000000000 ) ) ;
#42 = CARTESIAN_POINT ( 'NONE',  ( 0.0000000000000000000, 0.2676941016011035700, -0.4900000000000000500 ) ) ;
#43 = CARTESIAN_POINT ( 'NONE',  ( 0.0000000000000000000, 0.2676941016011035700, 0.0000000000000000000 ) ) ;
#44 = DIRECTION ( 'NONE',  ( 0.0000000000000000000, 1.000000000000000000, 0.0000000000000000000 ) ) ;
#45 = CIRCLE ( 'NONE', #266, 0.01000000000000003000 ) ;
#46 = CIRCLE ( 'NONE', #2, 0.5000000000000001100 ) ;
#47 = CARTESIAN_POINT ( 'NONE',  ( 0.0000000000000000000, 0.5696941016011035600, 0.0000000000000000000 ) ) ;
#48 = EDGE_CURVE ( 'NONE', #262, #265, #249, .T. ) ;
#49 = DIRECTION ( 'NONE',  ( 0.0000000000000000000, 0.0000000000000000000, -1.000000000000000000 ) ) ;
#50 = DIRECTION ( 'NONE',  ( 0.0000000000000000000, 1.000000000000000000, 0.0000000000000000000 ) ) ;
#51 = FACE_OUTER_BOUND ( 'NONE', #91, .T. ) ;
#52 = CYLINDRICAL_SURFACE ( 'NONE', #12, 0.1874999999999999700 ) ;
#53 = CYLINDRICAL_SURFACE ( 'NONE', #15, 0.1874999999999999700 ) ;
#54 = CARTESIAN_POINT ( 'NONE',  ( 0.0000000000000000000, 0.2676941016011035700, 0.0000000000000000000 ) ) ;
#55 = CARTESIAN_POINT ( 'NONE',  ( 0.1874999999999999700, 0.2576941016011035600, 0.0000000000000000000 ) ) ;
#56 = FACE_BOUND ( 'NONE', #321, .T. ) ;
#57 = TOROIDAL_SURFACE ( 'NONE', #175, 0.4900000000000000500, 0.01000000000000000000 ) ;
#58 = DIRECTION ( 'NONE',  ( 0.0000000000000000000, 0.0000000000000000000, 1.000000000000000000 ) ) ;
#59 = DIRECTION ( 'NONE',  ( -0.0000000000000000000, -1.000000000000000000, -0.0000000000000000000 ) ) ;
#60 = CIRCLE ( 'NONE', #240, 0.01000000000000003000 ) ;
#61 = AXIS2_PLACEMENT_3D ( 'NONE', #189, #164, #158 ) ;
#62 = ADVANCED_FACE ( 'NONE', ( #259 ), #252, .T. ) ;
#63 = PRODUCT_CONTEXT ( 'NONE', #112, 'mechanical' ) ;
#64 = ADVANCED_BREP_SHAPE_REPRESENTATION ( 'am-0209 0.375'''''''' id 1.125'''''''' od ball bearing (1614ZZ)', ( #324, #168 ), #134 ) ;
#65 = LINE ( 'NONE', #180, #66 ) ;
#66 = VECTOR ( 'NONE', #152, 39.37007874015748100 ) ;
#67 = DIMENSIONAL_EXPONENTS ( 1.000000000000000000, 0.0000000000000000000, 0.0000000000000000000, 0.0000000000000000000, 0.0000000000000000000, 0.0000000000000000000, 0.0000000000000000000 ) ;
#68 = DIRECTION ( 'NONE',  ( 0.0000000000000000000, 0.0000000000000000000, 1.000000000000000000 ) ) ;
#69 = EDGE_CURVE ( 'NONE', #191, #88, #244, .T. ) ;
#70 =( NAMED_UNIT ( * ) SI_UNIT ( $, .STERADIAN. ) SOLID_ANGLE_UNIT ( ) );
#71 = LENGTH_MEASURE_WITH_UNIT ( LENGTH_MEASURE( 0.02539999999999999900 ), #228 );
#72 = DIRECTION ( 'NONE',  ( 0.0000000000000000000, 0.0000000000000000000, 1.000000000000000000 ) ) ;
#73 = CARTESIAN_POINT ( 'NONE',  ( 0.0000000000000000000, 0.2576941016011035600, 0.0000000000000000000 ) ) ;
#74 = PRESENTATION_STYLE_ASSIGNMENT (( #229 ) ) ;
#75 = CARTESIAN_POINT ( 'NONE',  ( 0.0000000000000000000, 0.2576941016011035600, -0.1874999999999999700 ) ) ;
#76 = DIRECTION ( 'NONE',  ( -0.0000000000000000000, -1.000000000000000000, -0.0000000000000000000 ) ) ;
#77 = CIRCLE ( 'NONE', #3, 0.4900000000000000500 ) ;
#78 = COLOUR_RGB ( '',1.000000000000000000, 0.9490196078431372100, 0.9098039215686274400 ) ;
#79 = CARTESIAN_POINT ( 'NONE',  ( 6.062001655779398500E-017, 0.2576941016011035600, 0.4900000000000000500 ) ) ;
#80 = SURFACE_STYLE_FILL_AREA ( #267 ) ;
#81 = CARTESIAN_POINT ( 'NONE',  ( 0.0000000000000000000, 0.5596941016011035600, 0.0000000000000000000 ) ) ;
#82 = AXIS2_PLACEMENT_3D ( 'NONE', #165, #140, #103 ) ;
#83 = MECHANICAL_DESIGN_GEOMETRIC_PRESENTATION_REPRESENTATION (  '', ( #108 ), #29 ) ;
#84 = PLANE ( 'NONE',  #144 ) ;
#85 = EDGE_CURVE ( 'NONE', #167, #191, #250, .T. ) ;
#86 = LENGTH_MEASURE_WITH_UNIT ( LENGTH_MEASURE( 0.02539999999999999900 ), #201 );
#87 = ORIENTED_EDGE ( 'NONE', *, *, #48, .T. ) ;
#88 = VERTEX_POINT ( 'NONE', #143 ) ;
#89 = DIMENSIONAL_EXPONENTS ( 1.000000000000000000, 0.0000000000000000000, 0.0000000000000000000, 0.0000000000000000000, 0.0000000000000000000, 0.0000000000000000000, 0.0000000000000000000 ) ;
#90 = FILL_AREA_STYLE ('',( #27 ) ) ;
#91 = EDGE_LOOP ( 'NONE', ( #188, #151, #278, #306 ) ) ;
#92 =( NAMED_UNIT ( * ) PLANE_ANGLE_UNIT ( ) SI_UNIT ( $, .RADIAN. ) );
#93 = AXIS2_PLACEMENT_3D ( 'NONE', #81, #59, #58 ) ;
#94 = DIRECTION ( 'NONE',  ( -0.0000000000000000000, -1.000000000000000000, -0.0000000000000000000 ) ) ;
#95 = CARTESIAN_POINT ( 'NONE',  ( 0.0000000000000000000, 0.5696941016011035600, -0.1874999999999999700 ) ) ;
#96 = PRESENTATION_LAYER_ASSIGNMENT (  '', '', ( #108 ) ) ;
#97 = DIRECTION ( 'NONE',  ( -1.224646799147346800E-016, 0.0000000000000000000, -1.000000000000000000 ) ) ;
#98 = DIRECTION ( 'NONE',  ( 0.0000000000000000000, 0.0000000000000000000, 1.000000000000000000 ) ) ;
#99 = EDGE_CURVE ( 'NONE', #88, #303, #253, .T. ) ;
#100 = DIRECTION ( 'NONE',  ( -0.0000000000000000000, -1.000000000000000000, -0.0000000000000000000 ) ) ;
#101 = EDGE_LOOP ( 'NONE', ( #195, #142 ) ) ;
#102 = CARTESIAN_POINT ( 'NONE',  ( 0.0000000000000000000, 0.0000000000000000000, -0.5000000000000001100 ) ) ;
#103 = DIRECTION ( 'NONE',  ( 0.0000000000000000000, 0.0000000000000000000, 1.000000000000000000 ) ) ;
#104 = PRODUCT_DEFINITION_SHAPE ( 'NONE', 'NONE',  #150 ) ;
#105 = AXIS2_PLACEMENT_3D ( 'NONE', #54, #50, #33 ) ;
#106 = ADVANCED_FACE ( 'NONE', ( #218, #212 ), #84, .T. ) ;
#107 =( CONVERSION_BASED_UNIT ( 'INCH', #35 ) LENGTH_UNIT ( ) NAMED_UNIT ( #67 ) );
#108 = STYLED_ITEM ( 'NONE', ( #32 ), #64 ) ;
#109 =( LENGTH_UNIT ( ) NAMED_UNIT ( * ) SI_UNIT ( $, .METRE. ) );
#110 = SURFACE_STYLE_USAGE ( .BOTH. , #111 ) ;
#111 = SURFACE_SIDE_STYLE ('',( #26 ) ) ;
#112 = APPLICATION_CONTEXT ( 'automotive_design' ) ;
#113 = EDGE_CURVE ( 'NONE', #191, #327, #211, .T. ) ;
#114 = ORIENTED_EDGE ( 'NONE', *, *, #302, .F. ) ;
#115 = DIRECTION ( 'NONE',  ( 0.0000000000000000000, 0.0000000000000000000, 1.000000000000000000 ) ) ;
#116 = CARTESIAN_POINT ( 'NONE',  ( 6.123233995736767300E-017, 0.2676941016011035700, 0.5000000000000001100 ) ) ;
#117 = CARTESIAN_POINT ( 'NONE',  ( 2.296212748401286800E-017, 0.2576941016011035600, 0.1874999999999999700 ) ) ;
#118 = ORIENTED_EDGE ( 'NONE', *, *, #113, .T. ) ;
#119 = CARTESIAN_POINT ( 'NONE',  ( 0.0000000000000000000, 0.0000000000000000000, 0.0000000000000000000 ) ) ;
#120 = CARTESIAN_POINT ( 'NONE',  ( 0.1874999999999999700, 0.5696941016011035600, 0.0000000000000000000 ) ) ;
#121 = CARTESIAN_POINT ( 'NONE',  ( 0.0000000000000000000, 0.5596941016011035600, -0.5000000000000001100 ) ) ;
#122 = CLOSED_SHELL ( 'NONE', ( #62, #36, #196, #128, #17, #106, #263, #226, #296, #146 ) ) ;
#123 = DIRECTION ( 'NONE',  ( 0.0000000000000000000, 0.0000000000000000000, -1.000000000000000000 ) ) ;
#124 = DIRECTION ( 'NONE',  ( -0.0000000000000000000, -1.000000000000000000, -0.0000000000000000000 ) ) ;
#125 = CARTESIAN_POINT ( 'NONE',  ( 0.0000000000000000000, 0.5696941016011035600, 0.0000000000000000000 ) ) ;
#126 = EDGE_CURVE ( 'NONE', #323, #293, #214, .T. ) ;
#127 = PRODUCT_RELATED_PRODUCT_CATEGORY ( 'part', '', ( #255 ) ) ;
#128 = ADVANCED_FACE ( 'NONE', ( #220 ), #224, .T. ) ;
#129 = APPLICATION_PROTOCOL_DEFINITION ( 'draft international standard', 'automotive_design', 1998, #112 ) ;
#130 =( NAMED_UNIT ( * ) SI_UNIT ( $, .STERADIAN. ) SOLID_ANGLE_UNIT ( ) );
#131 = AXIS2_PLACEMENT_3D ( 'NONE', #13, #11, #10 ) ;
#132 = DIRECTION ( 'NONE',  ( 0.0000000000000000000, 0.0000000000000000000, 1.000000000000000000 ) ) ;
#133 = DIRECTION ( 'NONE',  ( -0.0000000000000000000, -1.000000000000000000, -0.0000000000000000000 ) ) ;
#134 =( GEOMETRIC_REPRESENTATION_CONTEXT ( 3 ) GLOBAL_UNCERTAINTY_ASSIGNED_CONTEXT ( ( #200 ) ) GLOBAL_UNIT_ASSIGNED_CONTEXT ( ( #170, #147, #130 ) ) REPRESENTATION_CONTEXT ( 'NONE', 'WORKASPACE' ) );
#135 = DIRECTION ( 'NONE',  ( -0.0000000000000000000, -1.000000000000000000, -0.0000000000000000000 ) ) ;
#136 = DIRECTION ( 'NONE',  ( 0.0000000000000000000, 0.0000000000000000000, -1.000000000000000000 ) ) ;
#137 = VERTEX_POINT ( 'NONE', #117 ) ;
#138 = DIRECTION ( 'NONE',  ( -0.0000000000000000000, -1.000000000000000000, -0.0000000000000000000 ) ) ;
#139 = EDGE_CURVE ( 'NONE', #137, #183, #232, .T. ) ;
#140 = DIRECTION ( 'NONE',  ( 0.0000000000000000000, 1.000000000000000000, 0.0000000000000000000 ) ) ;
#141 = PRODUCT_DEFINITION_FORMATION_WITH_SPECIFIED_SOURCE ( 'ANY', '', #255, .NOT_KNOWN. ) ;
#142 = ORIENTED_EDGE ( 'NONE', *, *, #223, .T. ) ;
#143 = CARTESIAN_POINT ( 'NONE',  ( 0.0000000000000000000, 0.2676941016011035700, -0.5000000000000001100 ) ) ;
#144 = AXIS2_PLACEMENT_3D ( 'NONE', #55, #31, #30 ) ;
#145 = PRESENTATION_LAYER_ASSIGNMENT (  '', '', ( #199 ) ) ;
#146 = ADVANCED_FACE ( 'NONE', ( #230 ), #225, .T. ) ;
#147 =( NAMED_UNIT ( * ) PLANE_ANGLE_UNIT ( ) SI_UNIT ( $, .RADIAN. ) );
#148 = UNCERTAINTY_MEASURE_WITH_UNIT (LENGTH_MEASURE( 1.000000000000000100E-005 ), #107, 'distance_accuracy_value', 'NONE');
#149 = EDGE_CURVE ( 'NONE', #304, #327, #222, .T. ) ;
#150 = PRODUCT_DEFINITION ( 'UNKNOWN', '', #141, #178 ) ;
#151 = ORIENTED_EDGE ( 'NONE', *, *, #99, .F. ) ;
#152 = DIRECTION ( 'NONE',  ( -0.0000000000000000000, -1.000000000000000000, -0.0000000000000000000 ) ) ;
#153 = DIRECTION ( 'NONE',  ( 0.0000000000000000000, -0.0000000000000000000, 1.000000000000000000 ) ) ;
#154 = DIRECTION ( 'NONE',  ( -0.0000000000000000000, -1.000000000000000000, -0.0000000000000000000 ) ) ;
#155 = DIRECTION ( 'NONE',  ( 0.0000000000000000000, 1.000000000000000000, 0.0000000000000000000 ) ) ;
#156 = CARTESIAN_POINT ( 'NONE',  ( 0.0000000000000000000, 0.2676941016011035700, 0.0000000000000000000 ) ) ;
#157 = CARTESIAN_POINT ( 'NONE',  ( 0.0000000000000000000, 0.0000000000000000000, 0.0000000000000000000 ) ) ;
#158 = DIRECTION ( 'NONE',  ( 0.0000000000000000000, 0.0000000000000000000, -1.000000000000000000 ) ) ;
#159 = DIRECTION ( 'NONE',  ( 0.0000000000000000000, 0.0000000000000000000, 1.000000000000000000 ) ) ;
#160 = AXIS2_PLACEMENT_3D ( 'NONE', #205, #94, #305 ) ;
#161 = DIRECTION ( 'NONE',  ( -0.0000000000000000000, -1.000000000000000000, -0.0000000000000000000 ) ) ;
#162 = CARTESIAN_POINT ( 'NONE',  ( 0.0000000000000000000, 0.5596941016011035600, 0.0000000000000000000 ) ) ;
#163 = MECHANICAL_DESIGN_GEOMETRIC_PRESENTATION_REPRESENTATION (  '', ( #199 ), #216 ) ;
#164 = DIRECTION ( 'NONE',  ( -0.0000000000000000000, -1.000000000000000000, -0.0000000000000000000 ) ) ;
#165 = CARTESIAN_POINT ( 'NONE',  ( 0.0000000000000000000, 0.5596941016011035600, 0.0000000000000000000 ) ) ;
#166 = EDGE_CURVE ( 'NONE', #265, #262, #231, .T. ) ;
#167 = VERTEX_POINT ( 'NONE', #177 ) ;
#168 = AXIS2_PLACEMENT_3D ( 'NONE', #157, #68, #39 ) ;
#169 = DIMENSIONAL_EXPONENTS ( 1.000000000000000000, 0.0000000000000000000, 0.0000000000000000000, 0.0000000000000000000, 0.0000000000000000000, 0.0000000000000000000, 0.0000000000000000000 ) ;
#170 =( CONVERSION_BASED_UNIT ( 'INCH', #86 ) LENGTH_UNIT ( ) NAMED_UNIT ( #89 ) );
#171 = ORIENTED_EDGE ( 'NONE', *, *, #223, .F. ) ;
#172 = ORIENTED_EDGE ( 'NONE', *, *, #48, .F. ) ;
#173 = AXIS2_PLACEMENT_3D ( 'NONE', #47, #5, #132 ) ;
#174 = DIRECTION ( 'NONE',  ( 1.000000000000000000, 0.0000000000000000000, -1.224646799147353200E-016 ) ) ;
#175 = AXIS2_PLACEMENT_3D ( 'NONE', #43, #76, #49 ) ;
#176 = DIRECTION ( 'NONE',  ( 0.0000000000000000000, 0.0000000000000000000, -1.000000000000000000 ) ) ;
#177 = CARTESIAN_POINT ( 'NONE',  ( 6.123233995736767300E-017, 0.5596941016011035600, 0.5000000000000001100 ) ) ;
#178 = PRODUCT_DEFINITION_CONTEXT ( 'detailed design', #38, 'design' ) ;
#179 = PLANE ( 'NONE',  #286 ) ;
#180 = CARTESIAN_POINT ( 'NONE',  ( 6.123233995736767300E-017, 0.0000000000000000000, 0.5000000000000001100 ) ) ;
#181 = ORIENTED_EDGE ( 'NONE', *, *, #20, .T. ) ;
#182 = EDGE_CURVE ( 'NONE', #183, #137, #242, .T. ) ;
#183 = VERTEX_POINT ( 'NONE', #75 ) ;
#184 = DIRECTION ( 'NONE',  ( -0.0000000000000000000, -1.000000000000000000, -0.0000000000000000000 ) ) ;
#185 = CARTESIAN_POINT ( 'NONE',  ( 0.0000000000000000000, 0.0000000000000000000, -0.1874999999999999700 ) ) ;
#186 = ORIENTED_EDGE ( 'NONE', *, *, #318, .F. ) ;
#187 = ORIENTED_EDGE ( 'NONE', *, *, #85, .T. ) ;
#188 = ORIENTED_EDGE ( 'NONE', *, *, #292, .F. ) ;
#189 = CARTESIAN_POINT ( 'NONE',  ( 0.0000000000000000000, 0.2676941016011035700, 0.0000000000000000000 ) ) ;
#190 = CARTESIAN_POINT ( 'NONE',  ( 2.296212748401286800E-017, 0.0000000000000000000, 0.1874999999999999700 ) ) ;
#191 = VERTEX_POINT ( 'NONE', #121 ) ;
#192 = EDGE_LOOP ( 'NONE', ( #294, #299, #181, #316 ) ) ;
#193 = CIRCLE ( 'NONE', #4, 0.01000000000000003000 ) ;
#194 = AXIS2_PLACEMENT_3D ( 'NONE', #41, #135, #245 ) ;
#195 = ORIENTED_EDGE ( 'NONE', *, *, #149, .T. ) ;
#196 = ADVANCED_FACE ( 'NONE', ( #234 ), #52, .F. ) ;
#197 = ORIENTED_EDGE ( 'NONE', *, *, #8, .F. ) ;
#198 =( NAMED_UNIT ( * ) SI_UNIT ( $, .STERADIAN. ) SOLID_ANGLE_UNIT ( ) );
#199 = STYLED_ITEM ( 'NONE', ( #74 ), #324 ) ;
#200 = UNCERTAINTY_MEASURE_WITH_UNIT (LENGTH_MEASURE( 1.000000000000000100E-005 ), #170, 'distance_accuracy_value', 'NONE');
#201 =( LENGTH_UNIT ( ) NAMED_UNIT ( * ) SI_UNIT ( $, .METRE. ) );
#202 =( CONVERSION_BASED_UNIT ( 'INCH', #71 ) LENGTH_UNIT ( ) NAMED_UNIT ( #169 ) );
#203 = EDGE_CURVE ( 'NONE', #303, #88, #46, .T. ) ;
#204 =( NAMED_UNIT ( * ) PLANE_ANGLE_UNIT ( ) SI_UNIT ( $, .RADIAN. ) );
#205 = CARTESIAN_POINT ( 'NONE',  ( 0.0000000000000000000, 0.2576941016011035600, 0.0000000000000000000 ) ) ;
#206 = DIRECTION ( 'NONE',  ( -1.000000000000000000, 0.0000000000000000000, 0.0000000000000000000 ) ) ;
#207 = CARTESIAN_POINT ( 'NONE',  ( 0.0000000000000000000, 0.5696941016011035600, 0.4900000000000000500 ) ) ;
#208 = CARTESIAN_POINT ( 'NONE',  ( 0.0000000000000000000, 0.5696941016011035600, 0.0000000000000000000 ) ) ;
#209 = DIRECTION ( 'NONE',  ( 0.0000000000000000000, 1.000000000000000000, 0.0000000000000000000 ) ) ;
#210 = DIRECTION ( 'NONE',  ( 0.0000000000000000000, 0.0000000000000000000, 1.000000000000000000 ) ) ;
#211 = CIRCLE ( 'NONE', #131, 0.01000000000000003000 ) ;
#212 = FACE_BOUND ( 'NONE', #288, .T. ) ;
#213 = AXIS2_PLACEMENT_3D ( 'NONE', #9, #154, #272 ) ;
#214 = CIRCLE ( 'NONE', #160, 0.4900000000000000500 ) ;
#215 = DIRECTION ( 'NONE',  ( -1.000000000000000000, 0.0000000000000000000, 0.0000000000000000000 ) ) ;
#216 =( GEOMETRIC_REPRESENTATION_CONTEXT ( 3 ) GLOBAL_UNCERTAINTY_ASSIGNED_CONTEXT ( ( #251 ) ) GLOBAL_UNIT_ASSIGNED_CONTEXT ( ( #202, #204, #198 ) ) REPRESENTATION_CONTEXT ( 'NONE', 'WORKASPACE' ) );
#217 = DIRECTION ( 'NONE',  ( 0.0000000000000000000, 0.0000000000000000000, -1.000000000000000000 ) ) ;
#218 = FACE_OUTER_BOUND ( 'NONE', #279, .T. ) ;
#219 = CARTESIAN_POINT ( 'NONE',  ( 0.0000000000000000000, 0.5596941016011035600, 0.4900000000000000500 ) ) ;
#220 = FACE_OUTER_BOUND ( 'NONE', #281, .T. ) ;
#221 = ORIENTED_EDGE ( 'NONE', *, *, #318, .T. ) ;
#222 = CIRCLE ( 'NONE', #173, 0.4900000000000000500 ) ;
#223 = EDGE_CURVE ( 'NONE', #327, #304, #23, .T. ) ;
#224 = CYLINDRICAL_SURFACE ( 'NONE', #213, 0.5000000000000001100 ) ;
#225 = TOROIDAL_SURFACE ( 'NONE', #239, 0.4900000000000000500, 0.01000000000000000000 ) ;
#226 = ADVANCED_FACE ( 'NONE', ( #241, #56 ), #179, .T. ) ;
#227 = SURFACE_SIDE_STYLE ('',( #80 ) ) ;
#228 =( LENGTH_UNIT ( ) NAMED_UNIT ( * ) SI_UNIT ( $, .METRE. ) );
#229 = SURFACE_STYLE_USAGE ( .BOTH. , #227 ) ;
#230 = FACE_OUTER_BOUND ( 'NONE', #320, .T. ) ;
#231 = CIRCLE ( 'NONE', #260, 0.1874999999999999700 ) ;
#232 = CIRCLE ( 'NONE', #194, 0.1874999999999999700 ) ;
#233 = DIRECTION ( 'NONE',  ( -0.0000000000000000000, -1.000000000000000000, -0.0000000000000000000 ) ) ;
#234 = FACE_OUTER_BOUND ( 'NONE', #313, .T. ) ;
#235 = DIRECTION ( 'NONE',  ( 0.0000000000000000000, 0.0000000000000000000, -1.000000000000000000 ) ) ;
#236 = ORIENTED_EDGE ( 'NONE', *, *, #20, .F. ) ;
#237 = FACE_OUTER_BOUND ( 'NONE', #192, .T. ) ;
#238 = CARTESIAN_POINT ( 'NONE',  ( 6.000769315822031000E-017, 0.2676941016011035700, 0.4900000000000000500 ) ) ;
#239 = AXIS2_PLACEMENT_3D ( 'NONE', #310, #44, #98 ) ;
#240 = AXIS2_PLACEMENT_3D ( 'NONE', #42, #206, #115 ) ;
#241 = FACE_OUTER_BOUND ( 'NONE', #101, .T. ) ;
#242 = CIRCLE ( 'NONE', #282, 0.1874999999999999700 ) ;
#243 = VECTOR ( 'NONE', #100, 39.37007874015748100 ) ;
#244 = LINE ( 'NONE', #102, #243 ) ;
#245 = DIRECTION ( 'NONE',  ( 0.0000000000000000000, 0.0000000000000000000, -1.000000000000000000 ) ) ;
#246 = FACE_OUTER_BOUND ( 'NONE', #274, .T. ) ;
#247 = TOROIDAL_SURFACE ( 'NONE', #61, 0.4900000000000000500, 0.01000000000000000000 ) ;
#248 = DIRECTION ( 'NONE',  ( -0.0000000000000000000, -1.000000000000000000, -0.0000000000000000000 ) ) ;
#249 = CIRCLE ( 'NONE', #16, 0.1874999999999999700 ) ;
#250 = CIRCLE ( 'NONE', #93, 0.5000000000000001100 ) ;
#251 = UNCERTAINTY_MEASURE_WITH_UNIT (LENGTH_MEASURE( 1.000000000000000100E-005 ), #202, 'distance_accuracy_value', 'NONE');
#252 = TOROIDAL_SURFACE ( 'NONE', #82, 0.4900000000000000500, 0.01000000000000000000 ) ;
#253 = CIRCLE ( 'NONE', #105, 0.5000000000000001100 ) ;
#254 = VECTOR ( 'NONE', #287, 39.37007874015748100 ) ;
#255 = PRODUCT ( 'am-0209 0.375'''''''' id 1.125'''''''' od ball bearing (1614ZZ)', 'am-0209 0.375'''''''' id 1.125'''''''' od ball bearing (1614ZZ)', '', ( #63 ) ) ;
#256 = CIRCLE ( 'NONE', #28, 0.5000000000000001100 ) ;
#257 = LINE ( 'NONE', #185, #258 ) ;
#258 = VECTOR ( 'NONE', #184, 39.37007874015748100 ) ;
#259 = FACE_OUTER_BOUND ( 'NONE', #289, .T. ) ;
#260 = AXIS2_PLACEMENT_3D ( 'NONE', #208, #25, #176 ) ;
#261 = CYLINDRICAL_SURFACE ( 'NONE', #40, 0.5000000000000001100 ) ;
#262 = VERTEX_POINT ( 'NONE', #315 ) ;
#263 = ADVANCED_FACE ( 'NONE', ( #237 ), #53, .F. ) ;
#264 = CARTESIAN_POINT ( 'NONE',  ( 0.0000000000000000000, 0.2576941016011035600, 0.0000000000000000000 ) ) ;
#265 = VERTEX_POINT ( 'NONE', #95 ) ;
#266 = AXIS2_PLACEMENT_3D ( 'NONE', #238, #174, #97 ) ;
#267 = FILL_AREA_STYLE ('',( #300 ) ) ;
#268 = ORIENTED_EDGE ( 'NONE', *, *, #302, .T. ) ;
#269 = EDGE_LOOP ( 'NONE', ( #114, #187, #295, #326 ) ) ;
#270 = FACE_OUTER_BOUND ( 'NONE', #269, .T. ) ;
#271 = LINE ( 'NONE', #190, #254 ) ;
#272 = DIRECTION ( 'NONE',  ( 0.0000000000000000000, 0.0000000000000000000, -1.000000000000000000 ) ) ;
#273 = ORIENTED_EDGE ( 'NONE', *, *, #34, .T. ) ;
#274 = EDGE_LOOP ( 'NONE', ( #325, #291, #186, #319 ) ) ;
#275 = ORIENTED_EDGE ( 'NONE', *, *, #126, .T. ) ;
#276 = CARTESIAN_POINT ( 'NONE',  ( 0.0000000000000000000, 0.5696941016011035600, 0.0000000000000000000 ) ) ;
#277 = EDGE_CURVE ( 'NONE', #88, #293, #60, .T. ) ;
#278 = ORIENTED_EDGE ( 'NONE', *, *, #277, .T. ) ;
#279 = EDGE_LOOP ( 'NONE', ( #221, #275 ) ) ;
#280 = ORIENTED_EDGE ( 'NONE', *, *, #34, .F. ) ;
#281 = EDGE_LOOP ( 'NONE', ( #273, #268, #21, #301 ) ) ;
#282 = AXIS2_PLACEMENT_3D ( 'NONE', #73, #6, #317 ) ;
#283 = ORIENTED_EDGE ( 'NONE', *, *, #1, .T. ) ;
#284 = ORIENTED_EDGE ( 'NONE', *, *, #182, .F. ) ;
#285 = ORIENTED_EDGE ( 'NONE', *, *, #8, .T. ) ;
#286 = AXIS2_PLACEMENT_3D ( 'NONE', #120, #209, #153 ) ;
#287 = DIRECTION ( 'NONE',  ( -0.0000000000000000000, -1.000000000000000000, -0.0000000000000000000 ) ) ;
#288 = EDGE_LOOP ( 'NONE', ( #284, #307 ) ) ;
#289 = EDGE_LOOP ( 'NONE', ( #280, #118, #314, #197 ) ) ;
#290 = ORIENTED_EDGE ( 'NONE', *, *, #166, .T. ) ;
#291 = ORIENTED_EDGE ( 'NONE', *, *, #292, .T. ) ;
#292 = EDGE_CURVE ( 'NONE', #303, #323, #45, .T. ) ;
#293 = VERTEX_POINT ( 'NONE', #22 ) ;
#294 = ORIENTED_EDGE ( 'NONE', *, *, #1, .F. ) ;
#295 = ORIENTED_EDGE ( 'NONE', *, *, #69, .T. ) ;
#296 = ADVANCED_FACE ( 'NONE', ( #51 ), #57, .T. ) ;
#297 = CARTESIAN_POINT ( 'NONE',  ( 6.062001655779398500E-017, 0.5696941016011035600, -0.4900000000000000500 ) ) ;
#298 = ORIENTED_EDGE ( 'NONE', *, *, #85, .F. ) ;
#299 = ORIENTED_EDGE ( 'NONE', *, *, #166, .F. ) ;
#300 = FILL_AREA_STYLE_COLOUR ( '', #78 ) ;
#301 = ORIENTED_EDGE ( 'NONE', *, *, #69, .F. ) ;
#302 = EDGE_CURVE ( 'NONE', #167, #303, #65, .T. ) ;
#303 = VERTEX_POINT ( 'NONE', #116 ) ;
#304 = VERTEX_POINT ( 'NONE', #207 ) ;
#305 = DIRECTION ( 'NONE',  ( 0.0000000000000000000, 0.0000000000000000000, -1.000000000000000000 ) ) ;
#306 = ORIENTED_EDGE ( 'NONE', *, *, #126, .F. ) ;
#307 = ORIENTED_EDGE ( 'NONE', *, *, #139, .F. ) ;
#308 = AXIS2_PLACEMENT_3D ( 'NONE', #276, #155, #72 ) ;
#309 = CARTESIAN_POINT ( 'NONE',  ( 0.0000000000000000000, 0.0000000000000000000, 0.0000000000000000000 ) ) ;
#310 = CARTESIAN_POINT ( 'NONE',  ( 0.0000000000000000000, 0.5596941016011035600, 0.0000000000000000000 ) ) ;
#311 = DIRECTION ( 'NONE',  ( 0.0000000000000000000, 0.0000000000000000000, -1.000000000000000000 ) ) ;
#312 = ORIENTED_EDGE ( 'NONE', *, *, #139, .T. ) ;
#313 = EDGE_LOOP ( 'NONE', ( #172, #283, #312, #236 ) ) ;
#314 = ORIENTED_EDGE ( 'NONE', *, *, #149, .F. ) ;
#315 = CARTESIAN_POINT ( 'NONE',  ( 2.296212748401286800E-017, 0.5696941016011035600, 0.1874999999999999700 ) ) ;
#316 = ORIENTED_EDGE ( 'NONE', *, *, #182, .T. ) ;
#317 = DIRECTION ( 'NONE',  ( 0.0000000000000000000, 0.0000000000000000000, -1.000000000000000000 ) ) ;
#318 = EDGE_CURVE ( 'NONE', #293, #323, #77, .T. ) ;
#319 = ORIENTED_EDGE ( 'NONE', *, *, #277, .F. ) ;
#320 = EDGE_LOOP ( 'NONE', ( #37, #298, #285, #171 ) ) ;
#321 = EDGE_LOOP ( 'NONE', ( #290, #87 ) ) ;
#322 = CARTESIAN_POINT ( 'NONE',  ( 0.0000000000000000000, 0.0000000000000000000, 0.0000000000000000000 ) ) ;
#323 = VERTEX_POINT ( 'NONE', #79 ) ;
#324 = MANIFOLD_SOLID_BREP ( 'Fillet1', #122 ) ;
#325 = ORIENTED_EDGE ( 'NONE', *, *, #203, .F. ) ;
#326 = ORIENTED_EDGE ( 'NONE', *, *, #99, .T. ) ;
#327 = VERTEX_POINT ( 'NONE', #297 ) ;
ENDSEC;
END-ISO-10303-21;
